Golden Shoulders - I Will Light You On Fire Chords & Tabs

 

I Will Light You On Fire Chords & Tabs

Golden Shoulders Chords & Tabs

Version: 1 Type: Tab

I Will Light You On Fire Tab

http://profile.myspace.com/index.cfm?fuseaction=user.viewprofile&friendID=9263472

I Will Light You on Fire-Golden Shoulders
Friendship Is Deep-2004 Doppler Records

Chords Used: A [002220]
	     E [022100]
	     B-Something [244222]
	     D [000232]

"D" means strum down, and "U" means strum up.

[ Tab from: https://www.guitartabs.cc/tabs/g/golden_shoulders/i_will_light_you_on_fire_tab.html ]
	     A		   E  	     B-something
e|--------0--0--0-----------0---------2-2-2--2-2---|
B|--------2--3--2--0-----0--0--0------2-2-2--2-2---|
G|--------2--2--2--0-----1--1--1---2--2-2-2--2-2---|
D|----2---2--2--2-0--2--2--2--2---4--4-4-4--4-4---|
A|--0-----0--0--0-----2------------4--4-4-4--4-4---|
E|--------------------0------------2--2-2-2--2-2---|
	  D  U  D  U  D  D  D  D   D  D U D  D U

	D
e|--2--2--0--0--|
B|--3--3--3--3--|
G|--2--2--2--2--|
D|--0--0--0--0--|
A|--0--0--0--0--|
E|--------------|
    D  D  U  U

That's it, just repeat over and over again.