Glassjaw - Cosmopolitan Blood Loss Chords & Tabs

 

Cosmopolitan Blood Loss Chords & Tabs

Glassjaw Chords & Tabs

Version: 2 Type: Bass Tab

Cosmopolitan Blood Loss Bass Tab

Glassjaw
Cosmopolitan Blood Loss
Drop D Tuning

This my tenth tab!  Here's to hoping I can contribute ten more.  As always, 
comments, suggestions, constructive criticism are welcome.  Thanks and enjoy!
:)

Verse  0:00 - (Play each part 1x)             
G|---------------------------------------------------|
D|---------------------------------------------------|
A|--22----------------------------222----------------|
D|-----00000000000000000000000000-----000000000000---|

G|--------------------------|
D|--------------------------|
A|--------------------------|
D|--111-444-000222-00-3-0---|

G|---------------------------------------------------|
D|---------------------------------------------------|
A|--22----------------------------222----------------|
D|-----00000000000000000000000000-----000000000000---|

G|--------------------------|
D|--------------------------|
A|--------------------------|
D|--111-444-000222-00-3-0---|

Chorus  0:20  (Play each part 1x)
G|-------------------------------------------|
D|-----------------4444----------------------|
A|--4444444444444-------2222222222222--444---|
D|-------------------------------------------|

G|-----------------------|-----------------|
D|-----------------------|-----------------|
A|-----------------------|--45---45---45---|
D|--2222-4444-00000000---|-----0----0------|

G|---------------4444------------------4444--------|
D|-----------4-6------6646----------46------6646---|
A|--44444444---------------22222222----------------|
D|-------------------------------------------------|

G|-----------------------|-----------------|
D|-----------------------|-----------------|
A|-----------------------|--45---45---45---|
D|--2222-4444-00000000---|-----0----0------|
[ Tab from: https://www.guitartabs.cc/tabs/g/glassjaw/cosmopolitan_blood_loss_btab_ver_2.html ]
Fill  0:40  (1x)
G|------------------|
D|------------------|
A|--44----------5---|
D|-----22-44-00-----|

Verse  0:43  (1x)

Chorus  1:04  (1x)


Bridge  1:24  (2x)
G|-------------------------------------------------------------------|
D|-------------------------------------------------------------------|
A|----------------7777---------------5555---------------7777---------|
D|--7777777777777------5555555555555------0000000000000------3333333-|

G|--------------|
D|--------------|
A|--3333-5555---|
D|--------------|

Extended Fill  1:44  (1x)
G|----------------------------------------------------|
D|--22-22-22-22---------------------------------------|
A|--------------22-22-22-22---------------------------|
D|--------------------------00-00-00-00-00-00-00-00---| 

G|----------------------------------------------------------------------|
D|----------------------------------------------------------------------|
A|---------------------------------------------------------35---35------|
D|--22222222222222220000000000000000--2222222222222222--00---00---00---| 

Chorus  2:08  (1x)

Alternate Verse  2:29  (1x)
G|-------------------------------------|
D|-------------------------------------|
A|--4444444444444-4444-2222222222222---|
D|-------------------------------------|

G|-----------------------|-----------------|
D|-----------------------|-----------------|
A|-----------------------|--45---45---45---|
D|--2222-4444-00000000---|-----0----0------|

G|-------------------------------------|
D|-------------------------------------|
A|--4444444444444-4444-2222222222222---|
D|-------------------------------------|

G|-----------------------|-----------------|
D|-----------------------|-----------------|
A|-----------------------|--45---45---45---|
D|--2222-4444-00000000---|-----0----0------|

Ending  2:49  (1x)
G|-----------------|
D|-----------------|
A|--22-22-22-4-----|
D|-------------0---|