Gerry Rafferty - Baker Street Chords & Tabs

 

Baker Street Chords & Tabs

Gerry Rafferty Chords & Tabs

Version: 3 Type: Tab

Baker Street Tab

Baker Street - Gerry Rafferty

Use Standard Tuning
[ Tab from: https://www.guitartabs.cc/tabs/g/gerry_rafferty/baker_street_tab_ver_3.html ]
e-----8--7--5-----5~~~-------8--7--7---------------8--7--5-----5--75--|
b--5-----------8----------5------------8--5~~~--5----------8-----------|
g----------------------------------------------------------------------|
d----------------------------------------------------------------------|
a----------------------------------------------------------------------|
e----------------------------------------------------------------------|


e-----8--7--5-----------------------------8--7--5----5--7--5~~----------|
b--5------------8--8~~--8--8~~--8--5---5-----------8--------------------|
g-----------------------------------------------------------------------|
d-----------------------------------------------------------------------|
a-----------------------------------------------------------------------|
e-----------------------------------------------------------------------|