George Michael - Faith Chords & Tabs

 

Faith Chords & Tabs

George Michael Chords & Tabs

Version: 4 Type: Bass Tab

Faith Bass Tab

   
George Michael  Faith (key of B)
by wormark

Verse
G|----------------------|-----------------------|--------------------|----------------------|
D|----------------------|-----------------------|--------------------|----------------------|
A|----------------------|-----------------------|--------------------|----------------------|
E|-0/7--0-7--0-7--0-7-7-|-0/7--0-7--0-7--11-9-7-|-0---0---0---0-0--0-|-0/7--0-7--0-7--0-7-7-| 

Pre-Chorus
G|--------------------|----------------------|--------------------|------------------|
D|--------------------|----------------------|--------------------|------------------|
A|--------------------|----------------------|--------------------|-------5-6--9-6---|
E|-0---0---0---0-0--0-|-0/7--0-7--0-7--0-7-7-|-0---0---0---0-0--0-|-0/7------------7-|

G|--------------------|--------------------|--------------------|--------------------|
D|--------------------|--------------------|--------------------|--------------------|
A|--------------------|--------------------|--------------------|--------------------|
E|-0---0---0---0-0--0-|-7---5---4---4-4--4-|-9---9---9---9-9--9-|-2---2---2---r-r--r-|

Chorus                 x4
G|----------------------| 
D|----------------------|
A|----------------------|
E|-0/70-7--0-7--0-7-7--|


Verse 1
Well I guess it would be nice
If I could touch your body
I know not everybody
Has got a body like you

But I've got to think twice
Before I give my heart away
And I know all the games you play
Because I play them too
[ Tab from: https://www.guitartabs.cc/tabs/g/george_michael/faith_btab_ver_4.html ]
Pre-Chorus
Oh but I
Need some time off from that emotion
Time to pick my heart up off the floor

And when that love comes down
Without devotion
Well it takes a strong man baby
But I'm showing you the door

Chorus
'Cause I gotta have faith...
Mmm, I gotta have faith
Beause I gotta have faith, faith,
Mm 'cause I gotta have faith-a-faith-a-faith

Verse 2
Baby
I know you're asking me to stay
Sayin' please, please, please, don't go away
You say I'm giving you the blues
Maybe

You mean every word you say
Can't help but think of yesterday
And another who tied me down to loverboy rules



Pre-Chorus
*Before this river*
*Becomes an ocean*
Before you throw my heart back on the floor

Oh baby I *reconsider*
My *foolish notion*
Well I need someone to hold me
But I'll wait for something more

Chorus
Yes I've gotta have faith...
Mmm, I *gotta have faith*
'Cause I gotta have *faith, faith, faith,*
I gotta have *faith-a-faith-a-faith*

Solo (same as verse)
ah mm uh uh
doot doot doot dah
I'll just have to wait
because I gotta have faith
I gotta have faith
I've gotta, gotta, gotta have faith

Pre-Chorus
*Before this river*
*Becomes an ocean*
Before you throw *my heart back on the floor*
(I've just got to have faith)

Oh baby I *reconsider*
My *foolish notion*
Well I need someone to hold me
But I'll wait for something more

Chorus
'Cause I gotta have faith...
Mmm, I *gotta have faith*
'Cause I gotta have *faith-a-faith-a-faith*
Mm 'cause I gotta have *faith-a-faith-a-faith-a*