Gathering - Strange Machines Chords & Tabs

 

Strange Machines Chords & Tabs

Gathering Chords & Tabs

Version: 2 Type: Tab

Strange Machines Tab

   
Band: The Gathering
Song: Strange Machines
Album: Mandylion
Tuning: Down to D (D G C F A D)

Riff 1
  Guitar 1
|--------------------------------------|
|--------------------------------------|
|--------------------------------------| x4
|--------------------------------------|
|-7-7-7-7-7-7-7-7-/10-10-10-10-9-9-9-7-|
|-5-5-5-5-5-5-5-5----------------------|
|                                      |
| Guitar 2                             |
|--------------------------------------|
|--------------------------------------|
|--------------------------------------| x2
|--------------------------------------|
|-7----------------/10---------9-----7-|
|-5------------------------------------|

Riff 2
  Both guitars
|-------------------------------|
|-------------------------------|
|-7-7-7-7-7-7-7-7-5-5-5-5-------|
|-7-7-7-7-7-7-7-7-5-5-5-5-5-5---|
|-5-5-5-5-5-5-5-5-3-3-3-3-5-5-x-|
|-------------------------3-3-x-|

Riff 3
  Guitar 1
|---------------------------------|
|---------------------------------|
|---------------------------------| x4
|---------------------------------|
|-7---7---7---7---/10-----9-----7-|
|-5---5---5---5-------------------|
|                                 |
| Guitar 2                        |
|---------------------------------|
|---------------------------------|
|---------------------------------| x4
|---------------------------------|
|-7---------------/10-----9-----7-|
|-5-------------------------------|

Riff 4
  Both Guitars
|-------------------------------------------------|
|-------------------------------------------------|
|-7-7-7-7-7-7-7-7-5-5-5-5-------------------------|
|-7-7-7-7-7-7-7-7-5-5-5-5-5-5-5-5-3-3-3-3-3-3-3-3-|
|-5-5-5-5-5-5-5-5-3-3-3-3-5-5-5-5-3-3-3-3-3-3-3-3-|
|-------------------------3-3-3-3-1-1-1-1-1-1-1-1-|

Riff 5
  Both Guitars
|---------------------------------|
|---------------------------------|
|-5-5-5-5-3-3-3-3-----------------|
|-5-5-5-5-3-3-3-3-5-5-5-5-5-5-5-5-|
|-3-3-3-3-1-1-1-1-5-5-5-5-5-5-5-5-|
|-----------------3-3-3-3-3-3-3-3-|
[ Tab from: https://www.guitartabs.cc/tabs/g/gathering/strange_machines_tab_ver_2.html ]
Riff 6
  Guitar 1
|---------------------------------|
|---------------------------------|
|---------------------------------| x2
|---------------------------------|
|-7---7---7---7---/10-----9-----7-|
|-5---5---5---5-------------------|
|                                 |
| Guitar 2                        |
|---------------------------------|
|---------------------------------|
|---------------------------------| x2
|---------------------------------|
|-7---------------/10-----9-----7-|
|-5-------------------------------|

Riff 7
  Guitar 1
|-----------------------------|
|-----------------------------|
|-----------------------------| x6
|-----------------------------|
|--------7------------8-7-5-7-|
|-0--0-0---0-0--0-0-0---------|
|                             |
|  Guitar 2                   |
|-----------------------------|
|-----------------------------|
|-----------------------------| x4
|-----------------------------|
|--------7------------8-7-5-7-|
|-0--0-0---0-0--0-0-0---------|

Riff 8
  Both Guitars
|-------------------------------------------------------------------------|
|-------------------------------------------------------------------------|
|-------------------3-332-------------------3-332-------------------2-222-|
|-5---5-5---5-5---5-3-332-5---5-5---5-5---5-3-332-3---3-3---3-3---3-2-222-|
|-5---5-5---5-5---5-1-110-5---5-5---5-5---5-1-110-3---3-3---3-3---3-0-000-|
|-3-333-3-333-3-333-------3-333-3-333-3-333-------1-111-1-111-1-111-------|

  -------------------------------------------------------------------------|
  -------------------------------------------------------------------------|
  -3---3-3---3-3---3-3-332-------------------2-222-3---3-3---3-3---3-3-332-| x2
  -3---3-3---3-3---3-3-332-3---3-3---3-3---3-2-222-3---3-3---3-3---3-3-332-|
  -1-111-1-111-1-111-1-110-3---3-3---3-3---3-0-000-1-111-1-111-1-111-1-110-|
  -------------------------1-111-1-111-1-111-------------------------------|

Riff 3 x1
Riff 4 x1
Riff 5 x1

Riff 9
 Both Guitars
|-----------------|
|-----------------|
|-----------------| X7
|-2-2-2-2-2-2-2-2-|
|-2-2-2-2-2-2-2-2-|
|-0-0-0-0-0-0-0---|

|------------|
|------------|
|------------|
|-2-2-2-2-2--|
|-2-2-2-2-2--|
|-0-0-0-0-0--|

Riff 4 x1
Riff 5 x1

Riff 10
 Both Guitars
|-----------------|
|-----------------|
|-----------------|
|-3-3-3-3-3-3-3-3-|
|-3-3-3-3-3-3-3-3-|
|-1-1-1-1-1-1-1-1-|

Riff 5 x1
Riff 6 x1
Riff 7 x1

Riff 11
  Guitar 1
|------------------|
|------------------|
|------------------| X7
|-2-2-2-2--2-2-2-2-|
|-2-2-2-2--2-2-2-2-|
|-0-0-0-0--0-0-0---|

|------------------------|
|------------------------|
|------------------------|
|-2-2-2-2--2--2--2--2--2-|
|-2-2-2-2--2--2--2--2--2-|
|-0-0-0-0--0-0--0--0--0-|

  Guitar 2
|------------------|
|------------------|
|------------------| x7
|-2-2-2-2--2-2-2-2-|
|-2-2-2-2--2-2-2-2-|
|-0-0-0-0--0-0-0-0-|

|------------------------|
|------------------------|
|------------------------|
|-2-2-2-2--2--2--2--2--2-|
|-2-2-2-2--2--2--2--2--2-|
|-0-0-0-0--0--0--0--0--0-|