Gandalf Murphy And The Slambovian Circus Of Dreams - My Girl Chords & Tabs

 

My Girl Chords & Tabs

Gandalf Murphy And The Slambovian Circus Of Dreams Chords & Tabs

Version: 1 Type: Tab

My Girl Tab

   
Song Title: My Girl	
Band: Gandalf Murphy and the Slambovian Circus of Dreams
Members: Joziah Longo, Tink Lloyd, Sharkey McEwen, Tony Zuzulo
Album: Live at the Town Crier
Band Website: www.slambovia.com

This tab is the authorís own work and represents his / her 
interpretation of the song.  

Tabbed by: Alex Dunckle  adeagle18@stny.rr.com
Tuning: (D  G  C  F  A  D)
[ Tab from: https://www.guitartabs.cc/tabs/g/gandalf_murphy_and_the_slambovian_circus_of_dreams/my_girl_tab.html ]
Intro and Verse:
D|-----2---------------------------------||
A|-------3------3--------3------2--------||
F|---2------------0--------0------2------||
C|-0-------------------------------------||
G|---------------------2-----0-----------||
D|-----------3---------------------------||

Chorus:
   F         C
D|-3---------2-----||
A|-3---------3-----||
F|-----------2-----||
C|-----------------||
G|-2---------------||
D|-3---------------||

      F    C
She's my girl

After Chorus and after the bridge: 
D|----------------||
A|----------------||
F|----------------||
C|----------------||
G|--0--4---0------||
D|------------3---||