Fugazi - Five Corporations Chords & Tabs

 

Five Corporations Chords & Tabs

Fugazi Chords & Tabs

Version: 1 Type: Bass Tab

Five Corporations Bass Tab

Band: FUGAZI
Song: Five Corporations
Album: End Hits


Intro: Drums & Guitar only

Main verse riff
|---0--0-----------------------|
|--3--3--3---------------------|
|-----------------------3h5----|
|------------5-5-5--5-5-----5--|


Itís as if they belong...
|-----------------|-----------------------------|
|-----------------|-----------------------------|
|--5-5-5--5-5h7/9-|-3-3-3--3-3/12-12-12-12-12---|
|-----------------|-----------------------------|
[ Tab from: https://www.guitartabs.cc/tabs/f/fugazi/five_corporations_btab.html ]
bridge 1
|------|---|------|---|
|------|---|------|---|
|------|-2-|------|-2-|
|guitar|---|guitar|---|


This oneís ours...
|--------------|--------------|
|--------------|--------------|
|-3-3-3--3-3-3-|-3-3-3--3-3-2-|
|--------------|--------------|


bridge 2
|-----------|---|------|---|
|-----------|---|------|---|
|-2/15-(15)-|-2-|------|-2-|
|-----------|---|guitar|---|


outro
|---------------|---------------|
|---------------|---------------|
|-2-2--2-2--2-2-|-5-5--5-5--5-5-|
|---------------|---------------|

end with
|---0--0----|
|--3--3--3--|
|-----------|
|-----------|