From First To Last - Note To Self Chords & Tabs

 

Note To Self Chords & Tabs

From First To Last Chords & Tabs

Version: 8 Type: Tab

Note To Self Tab

From First To Last
Note To Self 

Tabbed by: steve
Email: omghithere@hotmail.com
Tuned: Drop D

~ = Let it ring
. = Palm Mute
h = Hammer on
p = Pull-off
/ \ = Slide
* = Harmonics

Guitar 1

00:00 - 00:16
|-----------------------------------------------------------| 4x
|-----------------------------------------------------------|
|----------11----------12---------------11-----------12-----|
|----9---9-------9---9-----(2x)-------------------------(2x)|
|--7---7-------7---7--------------10--10-------10--10-------|
|-------------------------------10--10-------10--10---------|

00:17 - 00:21
|--------------------------| 1x
|--------------------------|
|------7~------------------|
|----9--------9--------9---|
|--7--------7--------7-----|
|--------10--------7-------|

00:22 - 00:42
|--0-------0------0------0-------0------0-----|
|----------7------8--------------5------7-----|
|--9-------9------9------5-------5------5-----|
|--x-------x------x------x-(24X)-x-(x4)-x-(x4)|
|--7-(24X)-7-(x4)-7-(x4)-3-------3------3-----|
|---------------------------------------------|

|--0-------0------0------0------|
|----------7------8-------------|
|--9-------9------9------5------|
|--x-------x------x------x-(32X)|
|--7-(24X)-7-(x4)-7-(x4)-3------|
|-------------------------------|

00:43 - 00:50
|------------------| 4x
|----------1p0-----|
|--7777770----2p0--| 
|------------------|
|------------------|
|------------------|

1:23 - 1:31
|------|
|------|
|------|
|------|
|------|
|------|

1:48 - 2:08
|---------------------------------------------------    ---------------------------------| 2x
|---------------------------------------------------    ---------------------------------|
|--1212121212121212--111111-1212121212121212--121212    -1212-1212-1212--------------(2x)|
|--xxxxxxxxxxxxxxxx--x-x-x--x-x-x-x-x-x-x-x---x-x-x-    -x-x--x-x--x-x--------12-10-9----|
|--1010101010101010--9-9-9--1010101010101010--141414    -1010-1010-1010-10-12------------|
|---------------------------------------------------    ---------------------------------|

2:09 - 2:11
|---------------------|
|---------------------|
|---------------------|
|--44-55-22-44-4h5p4--|
|--44-55-22-44-4h5p4--|
|--44-55-22-44-4h5p4--|

2:12 - 2:32
|---------------------------------------------------    ---------------------------------| 2x
|---------------------------------------------------    ---------------------------------|
|--1212121212121212--111111-1212121212121212--121212    -1212-1212-1212--------------(2x)|
|--xxxxxxxxxxxxxxxx--x-x-x--x-x-x-x-x-x-x-x---x-x-x-    -x-x--x-x--x-x--------12-10-9----|
|--1010101010101010--9-9-9--1010101010101010--141414    -1010-1010-1010-10-12------------|
|---------------------------------------------------    ---------------------------------|


2:33 - 2:36
|--------------------------| 1x
|--------------------------|
|------7~------------------|
|----9--------9--------9---|
|--7--------7--------7-----|
|--------10--------7-------|

2:37 - 2:57
|--0-------0------0------0-------0------0-----|
|----------7------8--------------5------7-----|
|--9-------9------9------5-------5------5-----|
|--x-------x------x------x-(24X)-x-(x4)-x-(x4)|
|--7-(24X)-7-(x4)-7-(x4)-3-------3------3-----|
|---------------------------------------------|

|--0-------0------0------0------|
|----------7------8-------------|
|--9-------9------9------5------|
|--x-------x------x------x-(32X)|
|--7-(24X)-7-(x4)-7-(x4)-3------|
|-------------------------------|
[ Tab from: https://www.guitartabs.cc/tabs/f/from_first_to_last/note_to_self_tab_ver_8.html ]
2:58 - 3:19
|----------------------------| 3x |----------------------------------|1x
|----------------------------|    |----------------------------------|
|-----------------------9~---|    |-----------------------9-9-9-9-9\-|
|--22222222-2~-22222222-x~---|    |--22222222-2~-22222222-x-x-x-x-x--|
|--22222222-2~-22222222-7~---|    |--22222222-2~-22222222-7-7-7-7-7\-|
|--22222222-2~-22222222------|    |--22222222-2~-22222222------------|
   ........    ........              ........    ........



Guitar 2

00:00 - 00:16
|------------------------------------------------------| 4x
|------------------------------------------------------|
|------------------------------------------------------|
|--2-2-2-2-2--2222222222-(2x)-5-5-5-5-5--5-5-5-5-5-(2x)|
|--2-2-2-2-2--2222222222------3-3-3-3-3--3-3-3-3-3-----|
|--2-2-2-2-2--2222222222-------------------------------|
   

00:17 - 00:21
|--------| 1x
|--------|
|--------|
|--------|
|--------|
|--------|

00:22 - 00:42
|-----------------------| 2x
|-----------------------|
|----------4------------|
|--2-------2-(32X)------|
|--2-(32X)-3------------|
|--2--------------------|

00:43 - 00:50
|----------------| 4x
|----------------|
|--444444-4-4-4--| 
|--222222-2-2-2--|
|--333333-3-3-3--|
|----------------|

00:51 - 1:06
|--------------------------------------------|  2x
|--------------------------------------------|
|--------------------------------------------|
|------------------22222-2-2-2-22222-2-2-2--|
|--2222222-3333333--22222-2-2-2-22222-2-2-2--|
|-------------------22222-2-2-2-22222-2-2-2--|
                    .....   .   .....   .

1:07 - 1:22
|------------------------------------------------------| 2x
|------------------------------------------------------|
|--1212121212-111111111111-----------------------------|
|--xxxxxxxxxx-xxxxxxxxxxxx--22222--2-2-2-22222--2-2-2--|
|--1010101010999999999999--22222--2-2-2-22222--2-2-2--|
|---------------------------22222--2-2-2-22222--2-2-2--|
                            .....    .   .....    .

1:23 - 1:47
|------|
|------|
|------|
|------|
|------|
|------|


1:48 - 2:08
|------------------------------------| 2x
|------------------------------------|    
|-4-------12-------77-77-77-22-2222--|    
|-2-------10-------55-55-55-00-0000--|    
|-2-(x12)-10-(x12)-55-55-55-00-0000--|
|-2-------10-------55-55-55-00-0000--|

2:09 - 2:11
|----|
|----|
|----|
|----|
|----|
|----|

2:12 - 2:32
|------------------------------------| 2x
|------------------------------------|    
|-4-------12-------77-77-77-22-2222--|    
|-2-------10-------55-55-55-00-0000--|    
|-2-(x12)-10-(x12)-55-55-55-00-0000--|
|-2-------10-------55-55-55-00-0000--|

2:33 - 2:36
|-------|
|-------|
|-------|
|-------|
|-------|
|-------|

2:37 - 2:57
|-----------------------| 2x
|-----------------------|
|----------4------------|
|--2-------2-(32X)------|
|--2-(32X)-3------------|
|--2--------------------|

2:58 - 3:19
|----------------------------| 3x |----------------------------------|1x
|----------------------------|    |----------------------------------|
|-----------------------9~---|    |-----------------------9-9-9-9-9\-|
|--22222222-2~-22222222-x~---|    |--22222222-2~-22222222-x-x-x-x-x--|
|--22222222-2~-22222222-7~---|    |--22222222-2~-22222222-7-7-7-7-7\-|
|--22222222-2~-22222222------|    |--22222222-2~-22222222------------|
   ........    ........              ........    ........
3:20 - 3:53
|------|
|------|
|------|
|------|
|------|
|------|