From Autumn To Ashes - Daylight Slaving Chords & Tabs

 

Daylight Slaving Chords & Tabs

From Autumn To Ashes Chords & Tabs

Version: 1 Type: Bass Tab

Daylight Slaving Bass Tab

   
-------------------------------------------------------------------------------
Daylight Slaving  From Autumn to Ashes
-------------------------------------------------------------------------------

Tabbed By : James Ensman	
e-mail: jamesissensman@yahoo.com

Tuning: Drop D

Intro
G|---------------------------------|
D|---------------------------------|
A|---------------------------------|
D|-0000-0000-00008888-8888-88/1010-| x2

Verse
G|----------------------|
D|----------------------|
A|----------------------|
D|-00000000-888888/1010-| x4

Pre-Chorus
G|---------------------------------|
D|---------------------------------|
A|-0-0-0-0-1-1-1-1---------3-3-3-3-|
D|-----------------3-3-3-3---------|

Chorus
G|----------------------|
D|----------------------|
A|----------------------|
D|-00000000-888888/1010-| x4
[ Tab from: https://www.guitartabs.cc/tabs/f/from_autumn_to_ashes/daylight_slaving_btab.html ]
Verse
G|----------------------|
D|----------------------|
A|----------------------|
D|-00000000-888888/1010-| x2

Rest for the slow part, come back in on

Pre-Chorus
G|---------------------------------|
D|---------------------------------|
A|-0-0-0-0-1-1-1-1---------3-3-3-3-|
D|-----------------3-3-3-3---------|

Chorus
G|----------------------|
D|----------------------|
A|----------------------|
D|-00000000-888888/1010-| x4

Breakdown
	do not play last |-000-| the third time
G|-----------------------------|
D|-----------------------------|
A|-----------------------------|
D|-0000-0000-000-0000-0000-000-| x3

Screaming Part
G|-------------|
D|-------------|
A|---7---7---7-|
D|-00--00--00--| x12

Pre-Chorus
G|---------------------------------|
D|---------------------------------|
A|-0-0-0-0-1-1-1-1---------3-3-3-3-|
D|-----------------3-3-3-3---------|

Chorus
G|----------------------|
D|----------------------|
A|----------------------|
D|-00000000-888888/1010-| x4

Outro
G|-----------|
D|-----------|
A|-8-7-5~~~~-|
D|-----------|