Franz Ferdinand - What She Came For Chords & Tabs

 

What She Came For Chords & Tabs

Franz Ferdinand Chords & Tabs

Version: 1 Type: Bass Tab

What She Came For Bass Tab

What She Came For
The double // and \\ here is me trying to show that the slide is prolongedÖ itís not as 
as some slides. I think itís pretty much perfect! 
Verse
G|----------------------------------------------------------------------------------|
D|----------------------------------------------------------------------------------|
A|-3//5-5-5-5-5-5-5-5\\3-3-3-3-3-3-3-3-3//10-10-10-10-10-10-10-12p1010-10-10-10-10--|
E|----------------------------------------------------------------------------------|

G|-------------------------------------------------------------------------------------|
D|-------------------------------------------------------------------------------------|
A|-3//5-5-5-5-5-5-5-5\\3-3-3-3-3-3-3-3-3//10-10-10-10-10-10-10-12p1010-10-10-10-7-5-7--|
E|-------------------------------------------------------------------------------------|

G|----------------------------------------------------------------------------------|
D|----------------------------------------------------------------------------------|
A|-3//5-5-5-5-5-5-5-5\\3-3-3-3-3-3-3-3-3//10-10-10-10-10-10-10-12p1010-10-10-10-10--|
E|----------------------------------------------------------------------------------|

G|---------------------------------------------------------------------------------------------|
D|---------------------------------------------------------------------------------------------|
A|-3//5-5-5-5-5-5-5-5\\3-3-3-3-3-3-3-3-3//10-10-10-10-10-10-10-10------------------------12\\--|
E|---------------------------------------------------------------------------------------------|

G|---------------------------------------------------------------------------------|
D|---------------------------------------------------------------------------------|
A|-3//5-5-5-5-5-5-5-5\\3-3-3-3-3-3-3-3-3//10-10-10-10-10-10-10-12p1010-10-10-10-7--|
E|---------------------------------------------------------------------------------|
[ Tab from: https://www.guitartabs.cc/tabs/f/franz_ferdinand/what_she_came_for_btab.html ]
G|--------------------------------------------------------------------------------------|
D|--------------------------------------------------------------------------------------|
A|-3//5-5-5-5-5-5-5-5\\3-3-3-3-3-3-3-3-3//10-10-10-10-10-10-10---la----la----la----laa--|
E|--------------------------------------------------------------------------------------|
Chorus
G|----------------------|---------------------|---------5-------5---------------------|
D|----------7----------|----------7----------|-----7------5h7----7\\---------//7-7-7--|
A|-5---8-------7h8-7-|-5---8------7h8-7-|-8-------------------------------------------|
E|----------------------|---------------------|---------------------------------------| x3
Verse
G|----------------------------------------------------------------------------------|
D|----------------------------------------------------------------------------------|
A|-3//5-5-5-5-5-5-5-5\\3-3-3-3-3-3-3-3-3//10-10-10-10-10-10-10-12p1010-10-10-10-10--|
E|----------------------------------------------------------------------------------|x2

G|---------------------------------------------------------------------------------------|
D|---------------------------------------------------------------------------------------|
A|-3//5-5-5-5-5-5-5-5\\3-3-3-3-3-3-3-3-3//10-10-10-10-10-10-10-10-----------------7-7-7--|
E|---------------------------------------------------------------------------------------|

G|-----------------------------------------------------------------|
D|-----------------------------------------------------------------|
A|-3//5-5-5-5-5-5-5-5\\3-3-3-3-3-3-3-3-3//10-10-10-10-10-10-10-10--|
E|-----------------------------------------------------------------|
Chorus
G|----------------------|---------------------|---------5-------5---------------------|
D|----------7----------|----------7----------|-----7------5h7----7\\---------//7-7-7--|
A|-5---8-------7h8-7-|-5---8------7h8-7-|-8-------------------------------------------|
E|----------------------|---------------------|---------------------------------------|x3
Bridge
G|-----------------------------|----------------------------|--------------------------|
D|-----------------------------|----------------------------|--------------------------|
A|-3--3--3--3--3--3--3--3--|----------------------------|-555555555\\\\\\--------------|
E|-----------------------------|-3--3--3--3--3--3--3--3-|------------------------------|

G|--------------------|
D|--------------------|
A|-5\\\\\-------------|
E|--------------------| x3

G|-7-5---------------|-----------------------|
D|-------7-5---------|-----------------------|
A|------------8--5\\-|-----------------------|
E|--------------------|----------------------|


Rave!!!
G|--------------------------------------------------|--------------------------|--------------------|
D|--------------------------------------------------|--------------------------|-5h7-5h7-5h7-7-777--|
A|-3h5-3h5-3h5-5-555-3h5-3h5-3h5-5-555-|-7h8-7h8-7h8-8-888-|----------------------------------------|
E|--------------------------------------------------|--------------------------|--------------------|
 X2

G|-----------------------------------------------|
D|-7h8-7h8-7h8-7h8-7h8-7h8-7h8-7h8---------------|
A|-----------------------------------------------|
E|-----------------------------------------------|

G|--------------------------------------------------|-----------------------|-------------------|
D|--------------------------------------------------|-----------------------|-5-5-5-5-5-55-555--|
A|-3h5-3h5-3h5-5-555-3h5-3h5-3h5-5-555-|-8-8-8-8-8-88-888-|-------------------------------------|
E|--------------------------------------------------|-----------------------|-------------------|
End
G|------------------------|
D|------------------------|
A|-55-3-555-3-55\\\-------|
E|------------------------|