Frank Turner - Peggy Sang The Blues Chords & Tabs

 

Peggy Sang The Blues Chords & Tabs

Frank Turner Chords & Tabs

Version: 1 Type: Bass Tab

Peggy Sang The Blues Bass Tab

Peggy Sang The Blues Bass Tab

Intro
G|----------12--------|
D|-12^14--------------|
A|--------10----------|
E|--------------------|

Verse
G|---2-4-----------------------|
D|-5---------------------------|
A|-------0-5-7--8-----3-5-7----|
E|-----------------3-5---------|

Chorus
G|------------------------------------------------|
D|------------------------------------------------|
A|------------------------------------------------|
E|-3^0^3-0^3^0^3-0^3^0^3-0^3^5^3---------------|

Bridge into middle 8
G|---------------------------------------------------------------------|
D|---------------------------------------------------------------------|
A|-----2-3-5-5--5-3-3^5---------2-3-5-5---5-3-3^5----------------------|
E|-3-5---------5----------3-3-3-5---------5------------33333333--------|
[ Tab from: https://www.guitartabs.cc/tabs/f/frank_turner/peggy_sang_the_blues_btab.html ]
Middle 8
G|----------------------------------------------------|
D|----------------------------------------------------|
A|--------3------------------3------------------10----|
E|-0-5-3---0-5-1-3--0-5-3---0-5-1111-3333-------------|

Fill before last chorus
G|-----------12------------14^12---12------------------------------12---12---12--------|
D|-12^14-----------12^14--------14---14^12^10-------10^12^14---14-14------------------|
A|---------10---------------------------------------10^12------------------------------|
E|-------------------------------------------------------------------------------------|

Last Chorus
G|-----------------------------|
D|-----------------------------|
A|------3333-------------------|
E|-1111------33333333----------|

Outro chorus
G|----------------------------------|
D|-3-3-2----------------------------|
A|--------5-3-3^5--------22-3-5-----|
E|------------------33-55-----------|