Foxboro Hot Tubs - The Pedestrian Chords & Tabs

 

The Pedestrian Chords & Tabs

Foxboro Hot Tubs Chords & Tabs

Version: 1 Type: Chords

The Pedestrian Chords

   
-------------------------------------------------------------------------------
			     THE PEDESTRIAN  Foxboro Hottubs
-------------------------------------------------------------------------------
Tabbed by: Lauren Banjo!
Email: dookie1293@aim.com

Tuning: EADGBE 


Chords used in this song:

e|-------------------0-------------------------------------------------------|
B|-------5----7------0-------------------------------------------------------|
G|--4----5----7------0----------5--------------------------------------------|
D|--5----5----7------2----------7--------------------------------------------|
A|--5----3----5------2----------7--------------------------------------------|
E|--3----------------0----------5--------------------------------------------| 
    G    C    D      Em        Am


Intro: G C D [x2]


Verse:

G                         C    D
I don't need no reason to be a misfit
G                        C     D
Whatever the reason, how far I go
Em                     C      D
When it's my time then I will let you know

G C D


Verse 2:
[ Tab from: https://www.guitartabs.cc/tabs/f/foxboro_hot_tubs/the_pedestrian_crd.html ]
G                         C      D
It don't take a genius to be an idiot
G                        C       D
It don't take a Jesus to save my soul
Em                    C       D
Well it's my time and it's my time to go

G

Chorus:

   C          G
Pedestrian is what I am
   C           G         C G
an understated Samaritan
C             G
Where I go, I go alone
   Am            D     D  D
As long as I am taking my time


Verse 3:

G                        C  D
I don't know the answer, be specific
G                            C         D
I've listened to reason, the reason is true
Em                    C        D
I take my time, well, now it's time to go


G C D

Solo:

G C D [x2]
Em C D
G C D [x3]
Em C D
G C D

Chorus

Verse 3

Outro

Em                  C        D
I take my time, and now it's time to go.

G C D
            
Em                   C        D
I take my time, well now it's time to go.