Foxboro Hot Tubs - Mother Mary Chords & Tabs

 

Mother Mary Chords & Tabs

Foxboro Hot Tubs Chords & Tabs

Version: 4 Type: Tab

Mother Mary Tab

   
----------------------------------------------------------------------------
			     MOTHER MARY  Foxboro Hot Tubs
----------------------------------------------------------------------------
Tabbed by: powerchord117
Email: powerchord117@att.net


Tuning: STANDARD (EADGBE)

*TRIPLET FEEL TO THE SIXTEENTH NOTE*


PICKUP: 

  GTR 1
e|-0-|
B|-0-|
G|-0-|
D|-0-|
A|---|
E|---|

					
INTRO:
  
  GTR I and II
e|----------------|----------------|----------------|----------------|
B|----------------|5-5-5--5-5-5555X|3-3-3--3-3-3333X|9-9-9--9-9-9999X|
G|6-6-6--6-6-6666X|6-6-6--6-6-6666X|4-4-4--4-4-4444X|9-9-9--9-9-9999X|
D|7-7-7--7-7-7777X|6-6-6--6-6-6666X|4-4-4--4-4-4444X|9-9-9--9-9-9999X|
A|7-7-7--7-7-7777X|4-4-4--4-4-4444X|2-2-2--2-2-2222X|7-7-7--7-7-7777X|
E|5-5-5--5-5-5555X|----------------|----------------|----------------| x1
  . .    . .       . .    . .       . .    . .       . .    . .
					
VERSE 1: 

  GTR I                                            1[~~~~~~~~~~~~~~~~~
e|----------------|----------------|----------------|----------------|
B|----------------|5-5-5--5-5-5555X|3-3-3--3-3-3333X|9-9-9--9-9-9999X|
G|6-6-6--6-6-6666X|6-6-6--6-6-6666X|4-4-4--4-4-4444X|9-9-9--9-9-9999X|
D|7-7-7--7-7-7777X|6-6-6--6-6-6666X|4-4-4--4-4-4444X|9-9-9--9-9-9999X|
A|7-7-7--7-7-7777X|4-4-4--4-4-4444X|2-2-2--2-2-2222X|7-7-7--7-7-7777X|
E|5-5-5--5-5-5555X|----------------|----------------|----------------|
  . .    . .       . .    . .       . .    . .       . .    . .

  GTR II
e|5~--------------|4~--------------|2~--------------|----------------|
B|5~--------------|5~--------------|3~--------------|9~--------------|
G|6~--------------|6~--------------|4~--------------|9~--------------|
D|7~--------------|6~--------------|4~--------------|9~--------------|
A|----------------|----------------|----------------|----------------|
E|----------------|----------------|----------------|----------------| x4
 












2[~~~~~~~~~~~~~~~~
  GTR I and II
e|----------------|
B|9-9-9--9-9-9999X|
G|9-9-9--9-9-9999X|
D|9-9-9--9-9-9999X|
A|7-7-7--7-7-7777X|
E|----------------|
  . .    . .

CHORUS 
  
  GTR I and II
e|----------------|----------------| 
B|7-7-7-79-999999X|----------------|
G|7-7-7-79-999999X|6-6-6-66-666666X|
D|7-7-7-79-999999X|7-7-7-77-777777X|
A|5-5-5-57-777777X|7-7-7-77-777777X|
E|----------------|5-5-5-55-555555X| x2 

e|----------------|----------------| 
B|7-7-7-79-999999X|-------2-222222X|
G|7-7-7-79-999999X|6-6-6662-222222X|
D|7-7-7-79-999999X|7-7-7774-444444X|
A|5-5-5-57-777777X|7-7-7774-444444X|
E|----------------|5-5-4442-222222X| 

e|----------------|
B|7-7-7-79-999999X|
G|7-7-7-79-999999X|
D|7-7-7-79-999999X|
A|5-5-5-57-777777X|
E|----------------|

BREAK

e|----------------|
B|----------------|
G|6-6-6--6-6-66666|
D|7-7-7--7-7-77777|
A|7-7-7--7-7-77777|
E|5-5-5--5-5-55555|x2

VERSE 2: 

  GTR I                                            1[~~~~~~~~~~~~~~~~~
e|----------------|----------------|----------------|----------------|
B|----------------|5-5-5--5-5-5555X|3-3-3--3-3-3333X|9-9-9--9-9-9999X|
G|6-6-6--6-6-6666X|6-6-6--6-6-6666X|4-4-4--4-4-4444X|9-9-9--9-9-9999X|
D|7-7-7--7-7-7777X|6-6-6--6-6-6666X|4-4-4--4-4-4444X|9-9-9--9-9-9999X|
A|7-7-7--7-7-7777X|4-4-4--4-4-4444X|2-2-2--2-2-2222X|7-7-7--7-7-7777X|
E|5-5-5--5-5-5555X|----------------|----------------|----------------|
  . .    . .       . .    . .       . .    . .       . .    . .

  GTR II
e|5~--------------|4~--------------|2~--------------|----------------|
B|5~--------------|5~--------------|3~--------------|9~--------------|
G|6~--------------|6~--------------|4~--------------|9~--------------|
D|7~--------------|6~--------------|4~--------------|9~--------------|
A|----------------|----------------|----------------|----------------|
E|----------------|----------------|----------------|----------------| x2

[ Tab from: https://www.guitartabs.cc/tabs/f/foxboro_hot_tubs/mother_mary_tab_ver_4.html ]
  GTR I                                            1[~~~~~~~~~~~~~~~~~
e|----------------|----------------|----------------|----------------|
B|----------------|5-5-5--5-5-5555X|3-3-3--3-3-3333X|9-9-9--9-9-9999X|
G|6-6-6--6-6-6666X|6-6-6--6-6-6666X|4-4-4--4-4-4444X|9-9-9--9-9-9999X|
D|7-7-7--7-7-7777X|6-6-6--6-6-6666X|4-4-4--4-4-4444X|9-9-9--9-9-9999X|
A|7-7-7--7-7-7777X|4-4-4--4-4-4444X|2-2-2--2-2-2222X|7-7-7--7-7-7777X|
E|5-5-5--5-5-5555X|----------------|----------------|----------------|
  . .    . .       . .    . .       . .    . .       . .    . .

  GTR II
e|5~------5---5---|4~----------44--|2~----------22--|----------------|
B|5~------5---5---|5~----------55--|3~----------33--|9~----------99--|
G|6~------6---6---|6~----------66--|4~----------44--|9~----------99--|
D|7~------7---7---|6~----------66--|4~----------44--|9~----------99--|
A|----------------|----------------|----------------|----------------|
E|----------------|----------------|----------------|----------------| 



  GTR I                                              GTR I and II
e|----------------|----------------|----------------|----------------|
B|----------------|5-5-5--5-5-5555X|3-3-3--3-3-3333X|9-9-9--9-9-9999X|
G|6-6-6--6-6-6666X|6-6-6--6-6-6666X|4-4-4--4-4-4444X|9-9-9--9-9-9999X|
D|7-7-7--7-7-7777X|6-6-6--6-6-6666X|4-4-4--4-4-4444X|9-9-9--9-9-9999X|
A|7-7-7--7-7-7777X|4-4-4--4-4-4444X|2-2-2--2-2-2222X|7-7-7--7-7-7777X|
E|5-5-5--5-5-5555X|----------------|----------------|----------------|
  . .    . .       . .    . .       . .    . .       . .    . .

  GTR II
e|--5---5---5--555|--4---4---4--444|--2---2---2--222|
B---5---5---5--555|--5---5---5--555|--3---3---3--333|
G|--6---6---6--666|--6---6---6--666|--4---4---4--444|
D|--7---7---7--777|--6---6---6--666|--4---4---4--444|
A|----------------|----------------|----------------|
E|----------------|----------------|----------------|
    .   .   .        .   .   .        .   .   .      

GUITAR SOLO (r = 10, s = 11, t = 12, u = 13, v = 14)

  GTR I                                            
e|--------------7-|----------------|----------------|----------------|
B|--------7r-7rr7-|9-------9-------|----------------|-----9---------X|
G|9-9-----99-999--|9-------8-------|9-9--------9-u--|s----9---------X|
D|7-7-----7--7----|----------------|7-7--------7-s--|9---------------|
A|----------------|----------------|----------------|----------------|
E|----------------|----------------|----------------|----------------|
 
  GTR II
e|----------------|----------------|----------------|----------------|
B|----------------|5-5-5--5-5-5555X|3-3-3--3-3-3333X|9-9-9--9-9-9999X|
G|6-6-6--6-6-6666X|6-6-6--6-6-6666X|4-4-4--4-4-4444X|9-9-9--9-9-9999X|
D|7-7-7--7-7-7777X|6-6-6--6-6-6666X|4-4-4--4-4-4444X|9-9-9--9-9-9999X|
A|7-7-7--7-7-7777X|4-4-4--4-4-4444X|2-2-2--2-2-2222X|7-7-7--7-7-7777X|
E|5-5-5--5-5-5555X|----------------|----------------|----------------| 
  . .    . .       . .    . .       . .    . .       . .    . .
                                                     
                                                    *full bend on vs
e|----------------|----------------|rrrr-rrr-rrr-rrX|t-t-------t--t--|
B|----------------|----------------|rrrr-rrr-rrr-rrX|t-t------t--t--t|
G|99r999r999r999r9|99r999r999r999r9|----------------|--------v--v--v-|
D|7777777777777777|6666666666666666|----------------|----------------|
A|----------------|----------------|----------------|----------------|
E|----------------|----------------|----------------|----------------|


e|----------------|----------------|----------------|----------------|
B|----------------|5-5-5--5-5-5555X|3-3-3--3-3-3333X|9-9-9--9-9-9999X|
G|6-6-6--6-6-6666X|6-6-6--6-6-6666X|4-4-4--4-4-4444X|9-9-9--9-9-9999X|
D|7-7-7--7-7-7777X|6-6-6--6-6-6666X|4-4-4--4-4-4444X|9-9-9--9-9-9999X|
A|7-7-7--7-7-7777X|4-4-4--4-4-4444X|2-2-2--2-2-2222X|7-7-7--7-7-7777X|
E|5-5-5--5-5-5555X|----------------|----------------|----------------| 
  . .    . .       . .    . .       . .    . .       . .    . .
             
OUTRO:


e|----------------|
B|----------------|
G|6-6-6--6-6-66666|
D|7-7-7--7-7-77777|
A|7-7-7--7-7-77777|
E|5-5-5--5-5-55555|x3
  . .    . .

e|----------||
B|----------||
G|6-6-6--6-6||
D|7-7-7--7-7||
A|7-7-7--7-7||
E|5-5-5--5-5||
  . .    . .

SEQUENCE:

Pickup
Intro
Verse 1 
Chorus
Verse 2
Chorus
Guitar Solo
Chorus
Outro

| /  slide up
| \  slide down
| h  hammer-on
| p  pull-off
| ~  vibrato
| +  harmonic
| x  Mute note
=====================================================================