Foo Fighters - Summers End Chords & Tabs

 

Summers End Chords & Tabs

Foo Fighters Chords & Tabs

Version: 1 Type: Bass Tab

Summers End Bass Tab

Summerís End Bass Tab

Intro

G|----R-----|----------|
D|----E-----|-----0~~--|
A|----S-----|----------|
E|----T-----|----------|

Verse
Note: Not Exact Timing

G|----------------------------------------|-------------------------|
D|-0~-0~--0~-0~--0-3~-0~-0~-0-3~-0~-0-3~-0|-------------------------|
A|----------------------------------------|-3-3-3-0-3-0-------------|
E|----------------------------------------|------------3-33-3~-0-3-0|

G|---------|
D|----0~~~-|
A|---------|
E|---------|

2nd Part of 1st Verse (After First Heavy Part)

G|-----------------------------------------|------------------------|
D|-0~-0~--0---0~-0~-03~-0~-0~-0---0~-0~-030|------------------------|
A|---------0~------------------0~----------|3-3-3-0-3-0-------------|
E|-----------------------------------------|-----------3-33-3~-0-3-0|

Pre-Chorus

G|-------|-------|
D|---0~--|---0~--|
A|-------|-------|
E|-------|-------|

Chorus

G|-----------------------------------------------------|
D|-0~-0~-0~-00-03--------------------------------------|
A|---------------00~-0~-00~-03~-3~-3~-33-3----------10~|
E|----------------------------------------3-33~-3~-3---|


G|-----------------------------------------------------|
D|0~-0~-0~--00-03--------------------------------------|
A|---------------00-0~-00---23~-3~-3~-33-3-------------|
E|----------------------------------------11~-11~-11~-1|


Repeat that again apart from at the end do this:

G|--------------------|
D|--------------0~~~~-|
A|---03-53~-05~-------|
E|11------------------|

Verse

Repeat 2nd Part Of Verse As Many Times As Needed.

Repeat Pre-Chorus

Repeat Chorus

SOLO
[ Tab from: https://www.guitartabs.cc/tabs/f/foo_fighters/summers_end_btab.html ]
G|--------|
D|-00~-00-| X9 or 10 times, im not sure
A|--------|
E|--------|

Then I Thinks Thereís A Little Fill After This, I Think It Goes:

G|------------|
D|-0h3p0-0----| (Do This Really Quickly)
A|------------|
E|------------|

When the guitar plays HIGH Note
G|------------------------------------------------------------------|
D|------------------------------------------------------------------|
A|23~-3~-3~-3~--33-3/10-1010~-10~-1010~-8~-88~-88~-8-10~-5-8~-5p3-31|
E|------------------------------------------------------------------|

G|------------------------------------------------------------------|
D|---------------------------------------------------10~1010~-1010~-|
A|8~-88~-88~-67~-5~-55~-55~-57~-88888888810\3-3~33~-3---------------|
E|------------------------------------------------------------------|

G|---------------------------|
D|-1010~-1010-12-5-55~-5-----|
A|----------------------5\---|
E|---------------------------|

Final Chorus


G|-----------------------------------------------------|
D|-0~-0~-0~-00-03--------------------------------------|
A|---------------00~-0~-00~-03~-3~-3~-33-3-------------|
E|----------------------------------------3-33~-3~-3-3~|


G|-----------------------------------------------------|
D|0~-0~-0~--00-03--------------------------------------|
A|---------------00-0~-00---23~-3~-3~-33-3-------03~---|
E|----------------------------------------33~-33~------| X1

Thereís This Bit That I just Canít Figure out, sorry, but it really hard.

Then from about 4:00 just play the chorus as normal, and then at the end do this:

G|--------------------|
D|--------------0~~~~-|
A|---03-53~-05~-------|
E|11------------------|

By bass_monster