Fm Static - Tonight Chords & Tabs

 

Tonight Chords & Tabs

Fm Static Chords & Tabs

Version: 2 Type: Tab

Tonight Tab

ARTIST: FM Static
SONG: Tonight

TUNING  E Standard

LEGENDS USED:
/ \- Slide
 ~ - Let Ring
 p  Pull-Off
_______________________________________________________________________
INTRO

:-0---2---0-------0---0-2-0~-----0---2---0-------0---3-2-0~-:
:---3---3---3---3---3-3------------3---3---3---3---3-3------:
:-------------2------------------------------2--------------:
:-0------------------------------0--------------------------:
:-----------------------------------------------------------:
:-----------------------------------------------------------:
_______________________________________________________________________
VERSE

:-0---2---0-------0---0-2-0~-----0---2---0-------0---3-2-0~-:
:---3---3---3---3---3-3------------3---3---3---3---3-3------:
:-------------2------------------------------2--------------:
:-0------------------------------0--------------------------:
:-----------------------------------------------------------:
:-----------------------------------------------------------:

:-0---2---0-------0---0-2-0~-----0---2---0-------0---3-2-0~-:
:---3---3---3---3---3--------------3---3---3---3---3--------:
:-------------2-------2----------------------2-------2------:
:-----------------------------------------------------------:
:-2------------------------------2--------------------------:
:-----------------------------------------------------------:
_______________________________________________________________________
INTERLUDE

:-0---2---0-------0---0-2-0~-:
:---3---3---3---3---3-3------:
:-------------2--------------:
:-0--------------------------:
:----------------------------:
:----------------------------:
_______________________________________________________________________
VERSE

:-0---2---0-------0---0-2-0~-----0---2---0-------0---3-2-0~-:
:---3---3---3---3---3-3------------3---3---3---3---3-3------:
:-------------2------------------------------2--------------:
:-0------------------------------0--------------------------:
:-----------------------------------------------------------:
:-----------------------------------------------------------:

:-0---2---0-------0---0-2-0~-:
:---3---3---3---3---3--------:
:-------------2-------2------:
:----------------------------:
:-2--------------------------:
:----------------------------:
_______________________________________________________________________
CHORUS
[ Tab from: https://www.guitartabs.cc/tabs/f/fm_static/tonight_tab_ver_2.html ]
:---------------------------------------------------------------:
:---------------------------------------------------------------:
:-7-7-777-4-4-4---4-4-444-6-6-6---7-7-777-4-4-4---4-4-444-6-6-6-:
:-7-7-777-4-4-4---5-5-555-7-7-7---7-7-777-5-5-5---4-4-444-7-7-7-:
:-5-5-555-2-2-2---5-5-555-7-7-7---5-5-555-5-5-5---2-2-222-7-7-7-:
:-5-5-555-2-2-2---3-3-333-5-5-5---5-5-555-3-3-3---2-2-222-5-5-5-: [x2]
_______________________________________________________________________
INTERLUDE

:-0---0-2--0-----------0~-------:
:---3--------3---3~--3----------:
:--------------2----------------:
:-0-----------------------------:
:-------------------------------:
:-------------------------------:
_______________________________________________________________________
VERSE

:-0---2---0-------0---0-2-0~-----0---2---0-------0---3-2-0~-:
:---3---3---3---3---3-3------------3---3---3---3---3-3------:
:-------------2------------------------------2--------------:
:-0------------------------------0--------------------------:
:-----------------------------------------------------------:
:-----------------------------------------------------------: [x3]

:-0---2---0-------0---0-2-0~-:
:---3---3---3---3---3--------:
:-------------2-------2------:
:----------------------------:
:-2--------------------------:
:----------------------------:
_______________________________________________________________________
CHORUS

:---------------------------------------------------------------:
:---------------------------------------------------------------:
:-7-7-777-4-4-4---4-4-444-6-6-6---7-7-777-4-4-4---4-4-444-6-6-6-:
:-7-7-777-4-4-4---5-5-555-7-7-7---7-7-777-5-5-5---4-4-444-7-7-7-:
:-5-5-555-2-2-2---5-5-555-7-7-7---5-5-555-5-5-5---2-2-222-7-7-7-:
:-5-5-555-2-2-2---3-3-333-5-5-5---5-5-555-3-3-3---2-2-222-5-5-5-: [x2]
_______________________________________________________________________
BRIDGE

:-0---0-2-0-----------0~-----0---0-3-0-----------0~-----:
:---3-------3---3~--3----------3-------3---3~--3--------:
:-------------2--------------------------2--------------:
:-0--------------------------0--------------------------:
:-------------------------------------------------------:
:-------------------------------------------------------:

:-0--2--3--2--0-----------2p0~--:
:----------------3-----3--------:
:-------------------2-----------:
:-------------------------------:
:-2-----------------------------:
:-------------------------------:
_______________________________________________________________________
CHORUS

:---------------------------------------------------------------:
:---------------------------------------------------------------:
:-7-7-777-4-4-4---4-4-444-6-6-6---7-7-777-4-4-4---4-4-444-6-6-6-:
:-7-7-777-4-4-4---5-5-555-7-7-7---7-7-777-5-5-5---4-4-444-7-7-7-:
:-5-5-555-2-2-2---5-5-555-7-7-7---5-5-555-5-5-5---2-2-222-7-7-7-:
:-5-5-555-2-2-2---3-3-333-5-5-5---5-5-555-3-3-3---2-2-222-5-5-5-: [x2]
_______________________________________________________________________
OUTRO

:-0---0-2-0-------------0~~~-:
:---3-------3---3-----3------:
:-------------2-----2--------:
:-0---------------0----------:
:----------------------------:
:----------------------------:
_______________________________________________________________________
END