Fm Static - Moment Of Truth Acoustic Chords & Tabs

 

Moment Of Truth Acoustic Chords & Tabs

Fm Static Chords & Tabs

Version: 2 Type: Chords

Moment Of Truth Acoustic Chords

   

Moment Of Truth Chords
by Fm Static,
www.Ultimate-Guitar.Com

Learn to play "Moment Of Truth" with online video lessons
"Moment of Truth"
FM Static Song

Intro:D Bm G A
   D        Bm   G   A      D
e -------------------------------------------------------|
B -------------------------------------------------------|
G ---11-9-7-6-7--7-9-9--------11-9-7-6-7------7-6--------|
D ---------------------------------------7--7-----7------|
A -------------------------------------------------------|
E -------------------------------------------------------|

D        Bm           G                A
Here we are, in the best years of our lives.
                D
With no way of knowing, when the
 Bm                              G
wheeíll stop spinning cause we donít
                  A
know where weíre goingÖ
   D         Bm     (D the same pattern and chord)
and here we are, on the best day of our lives.
And itís a go, lets make it last, so cheers you
                                                A
all to that, ícause this momentís never cominí back
[ Tab from: https://www.guitartabs.cc/tabs/f/fm_static/moment_of_truth_acoustic_crd_ver_2.html ]
Refrain:
    Bm                            G
I used to know her brother, but I never
                             D
knew I loved her, ítill the day she laid her
         A            Bm   (same chord n patern again)
eyes on me. Now Iím jumpiní up and down,
sheís the only one around, and she means
                       A
every little thing to me

Chorus:
              D             Bm
Iíve got your picture in my wallet, and your
 G                    A         D
Phone number to call it, and I miss you more,
   Bm                  G  A
Whenever I think about you,. Iíve got
      D                  Bm
your mixed tape in my Walkman, been so
 G                      A               D
long since weíve been talkiní and in a few
                       Bm            G     A
more days, weíll both hook up, forever and ever

D Bm G A (do the same from the first stanza)
And here I am, on the west coast of
American and Iíve been tryiní to think for weeks of
all the ways to ask you, And now
Iíve brought you to the place, Where Iíve
poured my heart out, a million times, for a million
reasons, To offer it to you
(Repeat Refrain)
(Repeat Chorus)

e -----------------------------------------------------------------------|
B -----------------------------------------------------------------------|
G --7-7-9-9-11-11--7-7-9-9-7--------7-7-9-9-11-11-9/7-7-7-9--------------|
D ---------------------------7------------------------------9-11-11-9-7--|
A -----------------------------------------------------------------------|
E -----------------------------------------------------------------------|
(2x)

(Repeat Refrain)
(Repeat Chorus)


sensiya na First time kong nagsubmit neto,.
jeimzrock@yahoo.c.ph


                                           -r[]ckuzi