Fm Static - Boy Moves To A New Town With Optimistic Outlook Chords & Tabs

 

Boy Moves To A New Town With Optimistic Outlook Chords & Tabs

Fm Static Chords & Tabs

Version: 1 Type: Bass Tab

Boy Moves To A New Town With Optimistic Outlook Bass Tab

   
-------------------------------------------------------------------------------
	Boy Moves to a New Town With Optimistic Outlook - FM Static
-------------------------------------------------------------------------------

Tuning: Standard

~No Bass in Intro~

0:09 Pre-Verse
G|--------------------------------------------------------------------|
D|--------------------------------------------------------------------|
A|--5555555555555555555555555555555522222222222222223333333333333333--|
E|--------------------------------------------------------------------|

0:18 ~Acoustic Break~

0:25 Verse
G|---------------------------------------------------|
D|---------------------------------------------------|
A|------------------3-3-3-3-5-5-5-5------------------|
E|--3-3-3-3-0-0-0-0-----------------3-3-3-3-0-0-0-0--|

G|-----------------------------|
D|-----------------------------|
A|--3-3-3-3-3-3-3-3-5-5-5-5-5--|
E|-----------------------------|

0:35 ~Pause~

0:36 Chorus
G|-------------------------------------------------------------------|
D|-------------------------------------------------------------------|
A|--3-3-3-3-----------------5-5-5-5-3-3-3-3---------5-5-5-5-7-7-7-7--|
E|----------3-3-3-3-0-0-0-0-----------------3-3-3-3------------------|

G|-----------------------------------------------------|
D|-----------------------------------------------------|
A|--3-3-3-3-----------------5-5-5-5-3-3-3-3---------5--|
E|----------3-3-3-3-0-0-0-0-----------------3-3-3-3----|

0:51 ~Break~

1:03 Verse 
G|--------------------------------------------------------------------|
D|--------------------------------------------------------------------|
A|--5555555555555555555555555555555522222222222222223333333333333333--|
E|--------------------------------------------------------------------|

G|-------------------------------------------------------------------|
D|-------------------------------------------------------------------|
A|----------------------------------3-3-3-3-3-3-3-3-5-5-5-5-5-5-5-5--|
E|--3-3-3-3-3-3-3-3-0-0-0-0-0-0-0-0----------------------------------|

1:20 ~Acoustic Break~

1:26 Pre-Chorus
G|---------------------------------------------------|
D|---------------------------------------------------|
A|------------------3-3-3-3-5-5-5-5------------------|
E|--3-3-3-3-0-0-0-0-----------------3-3-3-3-0-0-0-0--|

G|-----------------------------|
D|-----------------------------|
A|--3-3-3-3-3-3-3-3-5-5-5-5-5--|
E|-----------------------------|
[ Tab from: https://www.guitartabs.cc/tabs/f/fm_static/boy_moves_to_a_new_town_with_optimistic_outlook_btab.html ]
1:38 Chorus
G|-------------------------------------------------------------------|
D|-------------------------------------------------------------------|
A|--3-3-3-3-----------------5-5-5-5-3-3-3-3---------5-5-5-5-7-7-7-7--|
E|----------3-3-3-3-0-0-0-0-----------------3-3-3-3------------------|

G|------------------------------------------------------|
D|------------------------------------------------------|
A|--3-3-3-3-----------------5-5-5-5-3-3-3-3---------5~--|
E|----------3-3-3-3-0-0-0-0-----------------3-3-3-3-----|

1:56 Bridge I
G|-------------------------------------------------------------------|
D|-------------------------------------------------------------------|
A|--3-3-3-3-3-3-3-3-5-5-5-5-5-5-5-5-7-7-7-7-7-7-7-7------------------|
E|--------------------------------------------------3-3-3-3-3-3-3-3--|

2:04 Bridge II
G|-----------------------------------------------------|
D|-----------------------------------------------------|
A|--3-3-3----5-5-5----7-7-7-7-7-7-7-7------------------|
E|------------------------------------3-3-3-3-3-3-3-3--|

2:13 Bridge I
G|-------------------------------------------------------------------|
D|-------------------------------------------------------------------|
A|--3-3-3-3-3-3-3-3-5-5-5-5-5-5-5-5-7-7-7-7-7-7-7-7------------------|
E|--------------------------------------------------3-3-3-3-3-3-3-3--|

2:22 ~Acoustic Break~

2:38 Pre-Chorus
G|---------------------------------------------------|
D|---------------------------------------------------|
A|------------------3-3-3-3-5-5-5-5------------------|
E|--3-3-3-3-0-0-0-0-----------------3-3-3-3-0-0-0-0--|

G|-----------------------------|
D|-----------------------------|
A|--3-3-3-3-3-3-3-3-5-5-5-5-5--|
E|-----------------------------|

2:48 ~1!  2!  3!  4!~

2:50 Chorus
G|-------------------------------------------------------------------|
D|-------------------------------------------------------------------|
A|--3-3-3-3-----------------5-5-5-5-3-3-3-3---------5-5-5-5-7-7-7-7--|
E|----------3-3-3-3-0-0-0-0-----------------3-3-3-3------------------|

G|-------------------------------------------------------------------|
D|-------------------------------------------------------------------|
A|--3-3-3-3-----------------5-5-5-5-3-3-3-3---------5-5-5-5-5-5-5-5--|
E|----------3-3-3-3-0-0-0-0-----------------3-3-3-3------------------|

3:08 Ending Solo
G|-----------------------------------|    
D|-----------------------------------| x3 
A|--3-3-3-3-----------------5-5-5-5--|    
E|----------3-3-3-3-0-0-0-0----------|    

|----------------------||------------|
|----------------------||------------| x2
|--3-3-3-3-------------||--3~----5~--|
|----------3-3-3-3-0~--||-----3~-----|

And I really donít care if this is played on a five string! I just tabbed it for a four.

| /  slide up
| \  slide down
| h  hammer-on
| p  pull-off
| ~  let note ring
| +  harmonic
| x  Mute note
===============================================================================