Flys - Got You Where I Want You Chords & Tabs

 

Got You Where I Want You Chords & Tabs

Flys Chords & Tabs

Version: 4 Type: Bass Tab

Got You Where I Want You Bass Tab

   
Flys  Got You Where I Want You
by wormark

Intro (guitar only)x2
Verse 1
G|---|---|---|---|
D|---|---|---|---|
A|---|---|-0-|---|
E|-0-|-0-|---|---|

Pre-Chorus
G|---|---|--------|-----------------|
D|---|---|--------|-----------------|
A|---|---|-0-0-0-0|-0-0-0-0-0-0-0-0-|
E|-0-|-0-|--------|-----------------|

Chorus
G|-----|-----|-----|-----|
D|-----|-----|-----|-----|
A|-----|-----|-0---|-0-0-|
E|-0---|-0-0-|-----|-----|

Verse 2 (slide transitions)
Pre-Chorus 2 (slide transitions)
Chorus

Bridge & end
  e  e e  e e  e e  e   e  e e  e e  e e  e
G---------------------|---------------------|
D---------------------|---------------------|
A---11-9-11-9-11-9-11-|---11-9-11-9-11-9-11-|
E-0-------------------|---------------------|
   e  q  q  e  e e    e  e  e  e  e  e q
G------------------|------------------------|
D------------------|------------------------|
A-12----12-12-12---|-12----12-12-12---12----|
E----12----------0-|----12----------12------|

Or
  e e e e e e e e   e e e e e e e e
G-----------------|-----------------|
D-----------------|-----------------|
A-----------------|-----------------|
E-0-4-2-4-2-4-2-4-|---4-2-4-2-4-2-4-|
[ Tab from: https://www.guitartabs.cc/tabs/f/flys/got_you_where_i_want_you_btab_ver_4.html ]
Last Pre-Chorus
G------------------------------------------------|
D-------------------------6h7-7--7----7---7-7--7-|
A----7--6--7-----7--6--7--0---0--0--0---0---0--0-|
E-0-----------0----------------------------------|

Intro (x2 guitar only)
Verse 1
Hey, what's the point of this?
Oh hey, what's your favorite song? 
Maybe we could hum along. 

Pre-Chorus
Well, I think you're smart, 
You sweet thing, 
Tell me your name, 
I'm dying here. 

Chorus
Ah ooo 
Got you where I want you 
ah-yeah 
Got you where I want you 
yeah 

Verse 2
Hey, maybe just a smile. 
Oh hey, did you know that I can dance? 
Could we talk for awhile? 

Pre-Chorus

Chorus 2
Ah ooo 
Got you where I want you, yeah 
Got you where I want you, 
where I want you, I want you 

Bridge 
Suffer suffer 
You don't get no rougher 
Rub it up baby girl 
Torture me like no other

Suffer suffer 
You don't get no rougher 
When you rock me baby 
Put that thing on me lover 
(repeat)

Pre-Chorus

Coda
Ah ooo 
  (Suffer, Suffer)
ooooooooo
(You don't get no rougher)
ooooooooo
(Rub it up baby girl)
            Got you where I want
(Torture me like no other)
You
   (Suffer, Suffer,)
ooo
(You don't get no rougher)
Yeah
(When you rock me baby) 
           Got you where I want
(Put that thing on me lover)
You
  (Suffer suffer)
                  Yeah
(You don't get no rougher)
aaah
(Rub it up baby girl)
         Got you where I want
(Torture me like no other)
You
   (Suffer suffer)
Want you
(You don't get no rougher)
Want You
(When you rock me baby)
          Ahhhh
(Put that thing on me lover)

Coda (Guitar and Bass play end figure x3)
Got you where I want you 
Got you where I want you 
Got you where I want you