Flyleaf - Much Like Falling Chords & Tabs

 

Much Like Falling Chords & Tabs

Flyleaf Chords & Tabs

Version: 1 Type: Bass Tab

Much Like Falling Bass Tab

                                                            _||_
           Intro    (Play 8 Times)                   /
         =====                                        /  Dont Play This Last Part On The 8th Time !

G |-----------4--0-------|-------0--------4-4-4--0---0-|
D |------0---------------|-4-4-4---4----------------4--|
A |-0--2---2-------------|-----------------------------|
E |-----------------4-2-2|-------------0-0-------------|


            Chorus     (Play Twice)
          ======

G |------------------------------------------------------------------------|
D |------------------------------------------------------------------------|
A |------------------------------------------------------------------------|
E |-4-4-4-0-0-0-9-9-9-0-0-0-0-0-0-0-0-5-5-5-5-5-5-5-5-5-5-5-5-5-5-5-5------|


           Bridge     (Play Once) (These Parts Are After Lacey Sings High Pictched)
          =====
(First Part)

G |-----------------------------------|
D |-----------------------------------|
A |-----------------------------------|
E |-5-5-5-5-5-5-5-5-5-5-5-5-5-5-5-5---|
[ Tab from: https://www.guitartabs.cc/tabs/f/flyleaf/much_like_falling_btab.html ]
(Second Part)

G |-----------------------------------|
D |-----------------------------------|
A |-----------------------------------|
E |-4-4-4-0-0-0-2-2-2-2-2-2-2-2-2-2---|


          Pre-Chorus      (Play Once)
        =========

G |----------------------------------------------------------------------|
D |----------------------------------------------------------------------|
A |----------------------------------------------------------------------|
D |-4-4-4-0-0-0-2-2-2-2-2-2-2-2-2-2-9-9-9-0-0-0-2-2-2-2-2-2-2-2-2-2------|


            Chorus     (Play 4 Times)
          ======

G |------------------------------------------------------------------------|
D |------------------------------------------------------------------------|
A |------------------------------------------------------------------------|
E |-4-4-4-0-0-0-9-9-9-0-0-0-0-0-0-0-0-5-5-5-5-5-5-5-5-5-5-5-5-5-5-5-5------|


            Outro          (Play Once)
         ======

G |-----------------------------|
D |-----------------------------|
A |-----------------------------|
E | - 9-9-9-0-----2-------------|