Finley - Domani Chords & Tabs

 

Domani Chords & Tabs

Finley Chords & Tabs

Version: 1 Type: Bass Tab

Domani Bass Tab

INTRO:

|------------|------------|---|
|------------|------------|---|
|----4-----5-|----4-----5-|---|
|-5-----2----|-5-----2----|-5-|


VERSO:

[Leggere i saluti..]             [Ma stasera non c'Ŕ...]
[Dopo C'e SOLO la chitarra..]

|---------------------|          |---|---|---|---|
|---------------------|          |---|---|---|---|
|---------------------|          |---|---|-5-|---|
|-5--5-4--4-2--2-0--7-|          |-2-|-0-|---|-5-|


RITORNELLO:                    PRE VERSO:

[Domani ripartir˛˛˛˛...]

|------------|------------|   |------------|---|
|------------|------------|   |------------|---|
|----4-----5-|----4-----5-|   |----4-----5-|---|
|-5-----2----|-5-----2----|   |-5-----2----|-5-|


VERSO:

[Forse a volte..]        [Ma nn chiedo il xkŔ..]
[Come sopra..]
[ Tab from: https://www.guitartabs.cc/tabs/f/finley/domani_btab.html ]
|------------------|     |---|---|---|---| ---|---|---|---|
|------------------|     |---|---|---|---| ---|---|---|---|
|------------------|     |---|---|-5-|---| ---|---|-5-|---|
|-9--5--7--5--7--0-|     |-2-|-0-|---|-5-| -2-|-0-|---|-5-|


RITORNELLO:                  
[Domani ripartir˛˛˛˛...]

|------------|------------|
|------------|------------|
|----4-----5-|----4-----5-|
|-5-----2----|-5-----2----|


INTERLUDE:
|---------------|--------------|----------------------|
|---------------|--------------|----------------------|
|---------------|--------------|----------------------|
|-5-/-12--12/-5-|-4--2--0--7-5-|-5/12--12-/5--4--2--0-|


|---|---|---|---|    |---|---|
|---|---|---|---|    |---|---|
|---|---|-5-|---|    |---|---|
|-2-|-0-|---|-5-| x3 |-2-|-0-|



RITORNELLO:                             FINE:

[Domani ripartir˛˛˛˛...]

|------------|------------|-------------|---|
|------------|------------|-------------|---|
|----4-----5-|----4-----5-|-----4-----5-|---|
|-5-----2----|-5-----2----|-5------2----|-5-|

Tab by >BaD.TiGeR<