Finley - Adrenalina Chords & Tabs

 

Adrenalina Chords & Tabs

Finley Chords & Tabs

Version: 1 Type: Bass Tab

Adrenalina Bass Tab

   
INTRO:

|---------------------------|    |----------------|
|---------------------------|    |----------------|
|---------------------5-5-5-|    |--------------5-|
|-5-5-5--0-0-0--2-2-2-------| x7 |-5-5-5--7-7-7---|


VERSO:

[Cerco un'altrernativa ke..]

|-----|-----|---------|-----|--------------|
|-----|-----|---------|-----|--------------|
|-----|-----|---------|-----|--------5-5-5-|
|-5-5-|-2-2-|-0-0-0-0-|-5-5-|-7-7-7--------|

|---------------------------|
|---------------------------|
|---------------------5-5-5-|
|-5-5-5--0-0-0--2-2-2-------| x2

[Mai nessuno capirÓ..]

|---|---|---|-------------------|---------------------------------|
|---|---|---|-------------------|---------------------------------|
|---|---|---|-------------------|------------5-5-5-5-5--7-7-7-7-7-|
|-5-|-2-|-0-|-5-5-(tante volte)-|-7-7-7-7-7-----------------------|

[E vaaa..]

|--------------------------------|---------------------------------|
|--------------------------------|---------------------------------|
|--------------------------------|-----------------------7-7-7-7-7-|
|-5-5-5-5-5--2-2-2-2-2-0-0-0-0-0-|-5-5-5-5-5--0-0-0-0-0------------|


RITORNELLO:

[Io nn riesco a capire]

|---|---|---|---|---|
|---|---|---|---|---|
|---|-5-|---|-9-|-7-|
|-5-|---|-2-|---|---|


INTRO:
[ Tab from: https://www.guitartabs.cc/tabs/f/finley/adrenalina_btab.html ]
|---------------------------|    |----------------|
|---------------------------|    |----------------|
|---------------------5-5-5-|    |--------------5-|
|-5-5-5--0-0-0--2-2-2-------| x3 |-5-5-5--7-7-7---|


VERSE:

[Prima o poi..]

|----------|-----|---------|----------|
|----------|-----|---------|----------|
|----------|-----|---------|----------|
|-5-5--5-5-|-2-2-|-0-0--0-0|-5-5--5-5-|

|---------------------------------|
|---------------------------------|
|------------5-5-5-5-5--7-7-7-7-7-|
|-7-7-7-7-7-----------------------|

[E vaa...]

|--------------------------------|    |----------------------|
|--------------------------------|    |----------------------|
|--------------------------------|    |-7-7-7-7-7--9-9-9-9-9-|
|-5-5-5-5-5--2-2-2-2-2-0-0-0-0-0-| x2 |----------------------|


RITORNELLO:

[Io nn riesco a capire]

|---|---|---|---|---|
|---|---|---|---|---|
|---|-5-|---|-9-|-7-|
|-5-|---|-2-|---|---|


INTERLUDE:

SOLO CHITARRA


INTRO:

|---------------------------|    |-----------------------------------|
|---------------------------|    |-----------------------------------|
|---------------------5-5-5-|    |--------------5-5-5-5-5--7-7-7-7-7-|
|-5-5-5--0-0-0--2-2-2-------| x3 |-5-5-5--7-7-7----------------------|


RITORNELLO:

[Io nn riesco a capire]   END:

|---|---|---|---|---|     |---|
|---|---|---|---|---|     |---|
|---|-5-|---|-9-|-7-|     |---|
|-5-|---|-2-|---|---|     |-5-|

Tab by >BaD.TiGeR<