Farside - Return Of The Fly Chords & Tabs

 

Return Of The Fly Chords & Tabs

Farside Chords & Tabs

Version: 1 Type: Bass Tab

Return Of The Fly Bass Tab

return of the fly - farside (misfits cover)

intro
|--------------------|
|-----4--------------| 
|-2-5--------4-5-----|  x 4 
|----------3---------|

pause

chorus
|----------------------|
|----------------------|
|----------------------|  x 4
|--3-3-3-33--7-7-7-77--|
[ Tab from: https://www.guitartabs.cc/tabs/f/farside/return_of_the_fly_btab.html ]
verse
|-------------------------------------------------------------|
|-------------------------------------------------------------|
|-8-8-8-88--6-6-6-66---x3---end onó8-8-8-88-6-5-4-3-----------|
|-------------------------------------------------------------|

chorus

Verse 
|-------------------------------------------------------------|
|-------------------------------------------------------------|
|-8-8-8-88--6-6-6-66---x8---end on-8-8-8-88-6-5-4-3-----------|
|-------------------------------------------------------------|

Break 
The same as chorus

Chorus

Outro (play the same as intro here)