Fall Out Boy - Xo Chords & Tabs

 

Xo Chords & Tabs

Fall Out Boy Chords & Tabs

Version: 2 Type: Tab

Xo Tab

Title  XO
Artist- Fall Out Boy
Album  From Under the Cork Tree

Tabbed by: Larry A

Tuning: Standard
Guitar 1  Distortion
Guitar 2  Distortion

 _________________
|Intro (0:00-0:17)|
|_________________|

Guitar 1
e| |---------------------------------|---------------------------------|
B| |o--------------------------------|---------------------------------|
G| |---------------------------------|---------------------------------|
D| |-4-4-4-4-4-4-4-4-4-4-4-4-4-4-4-4-|-4-4-4-4-4-4-4-4-4-4-4-4-4-4-4-4-|
A| |o2-2-2-2-2-2-2-2-2-2-2-2-2-2-2-2-|-2-2-2-2-2-2-2-2-2-2-2-2-2-2-2-2-|
E| |---------------------------------|---------------------------------|
     * * * * * * * * * * * * * * * *   * * * * * * * * * * * * * * * *
  1. I    comb    the    crowd    and  pick     you     out    My
  2. Starts    eyes     closed    to   fingers     crossed      To

Guitar 1
e| |---------------------------------|---------------------------------|
B| |---------------------------------|--------------------------------o|
G| |---------------------------------|---------------------------------|
D| |---------------------------------|-4-4-4-4-4-4-4-4-4-4-4-4-4-4-4-4-|
A| |-5-5-5-5-5-5-5-5-2-2-2-2-2-2-2-2-|-2-2-2-2-2-2-2-2-2-2-2-2-2-2-2-2o|
E| |-3-3-3-3-3-3-3-3-0-0-0-0-0-0-0-0-|---------------------------------|
     * * * * * * * * * * * * * * * *   * * * * * * * * * * * * * * * *
  1. Mouth moves too fast for you to   figure    it    out    It 
  2. "I      swear       I      say"                            To

Guitar 1
e| |---------------------------------|---------------------------------|
B| |---------------------------------|---------------------------------|
G| |---------------------------------|-4-4-4-4-4-4-4-4-4-4-4-4-4-4-4-4-|
D| |---------------------------------|-4-4-4-4-4-4-4-4-x-x-x-x-x-x-x-x-|
A| |-5-5-5-5-5-5-5-5-2-2-2-2-2-2-2-2-|-2-2-2-2-2-2-2-2-2-2-2-2-2-2-2-2-|
E| |-3-3-3-3-3-3-3-3-0-0-0-0-0-0-0-0-|---------------------------------|
     * * * * * * * * * * * * * * * *   * * * * * * * *
     "I      swear       I      say"                      To hands bet

 ______________________
|Pre-Chorus (0:18-0:32)|
|______________________|

Guitar 1
e| |---------------------------------|---------------------------------|
B| |---------------------------------|---------------------------------|
G| |1111111111111111-9-9-9-9-9-9-9-9-|-4-4-6-6-7-71111-6-6-6-6-3-3-3-3-|
D| |-x-x-x-x-x-x-x-x-x-x-x-x-x-x-x-x-|-x-x-x-x-x-x-x-x-x-x-x-x-x-x-x-x-|
A| |-9-9-9-9-9-9-9-9-7-7-7-7-7-7-7-7-|-2-2-4-4-5-5-9-9-4-4-4-4-1-1-1-1-|
E| |---------------------------------|---------------------------------|
     -ween legs,     It takes" to      drinks in the   Bar to the keys |
     to "Whatever                      club to the     to your         |
                                                                       |
Guitar 2                                                               |
e| |---------------------------------|---------------------------------|
B| |---------------------------------|---------------------------------|
G| |-4-4-4-4-4-4-4-4-----------------|-4-4-6-6-7-7-6-6-4-4-4-4---------|
D| |-4-4-4-4-4-4-4-4-4-4-4-4-4-4-4-4-|-4-4-6-6-7-7-7-7-4-4-4-4-4-4-4-4-|
A| |-2-2-2-2-2-2-2-2-4-4-4-4-4-4-4-4-|-2-2-4-4-5-5-4-4-2-2-2-2-4-4-4-4-|
E| |-----------------2-2-2-2-2-2-2-2-|-------------------------2-2-2-2-|

Guitar 1
e| |---------------------------------|---------------------------------|
B| |---------------------------------|---------------------------------|
G| |1111111111111111-9-9-9-9-9-9-9-9-|-4-4-6-6-7-71111-7-7-7-7-6-6-6-6-|
D| |-x-x-x-x-x-x-x-x-x-x-x-x-x-x-x-x-|-x-x-x-x-x-x-x-x-x-x-x-x-x-x-x-x-|
A| |-9-9-9-9-9-9-9-9-7-7-7-7-7-7-7-7-|-2-2-4-4-5-5-9-9-5-5-5-5-4-4-4-4-|
E| |---------------------------------|---------------------------------|
     Car To hotel stares/stairs to     Exit door                       |
                     the emergency                                     |
                                                                       |
Guitar 2                                                               |
e| |---------------------------------|---------------------------------|
B| |---------------------------------|---------------------------------|
G| |-4-4-4-4-4-4-4-4-----------------|-4-4-6-6-7-7-6-6-4-4-4-4-4-4-4-4-|
D| |-4-4-4-4-4-4-4-4-4-4-4-4-4-4-4-4-|-4-4-6-6-7-7-7-7-4-4-4-4-4-4-4-4-|
A| |-2-2-2-2-2-2-2-2-4-4-4-4-4-4-4-4-|-2-2-4-4-5-5-4-4-2-2-2-2-2-2-2-2-|
E| |-----------------2-2-2-2-2-2-2-2-|---------------------------------|

 __________________
|Chorus (0:33-1:08)|
|__________________|

Guitar 1
e| |---------------------------------|---------------------------------|
B| |-7-7-7-7-7-7-7-7-7-7-7-7-7-7-7-7-|-7-7-7-7-7-7-7-7-7-7-7-7-7-7-7-7-|
G| |-7-7-7-7-7-7-7-7-7-7-7-7-7-7-7-7-|-6-6-6-6-6-6-6-6-6-6-6-6-6-6-6-6-|
D| |-x-x-x-x-x-x-x-x-x-x-x-x-x-x-x-x-|-x-x-x-x-x-x-x-x-x-x-x-x-x-x-x-x-|
A| |-5-5-5-5-5-5-5-5-5-5-5-5-5-5-5-5-|-4-4-4-4-4-4-4-4-4-4-4-4-4-4-4-4-|
E| |---------------------------------|---------------------------------|
     To the love, I left my conscience pressed Between the pages of the|
                                                                       |
Guitar 2 (Tremolo Pick)                                                |
e| |---------------------------------|---------------------------------|
B| |---------------------------------|---------------------------------|
G| |---------------------------------|---------------------------------|
D| |12121212121212121212121212121212-|11111111111111111111111111111111-|
A| |---------------------------------|---------------------------------|
E| |---------------------------------|---------------------------------|

Guitar 1
e| |---------------------------------|---------------------------------|
B| |o--------------------------------|--------------------------------o|
G| |11111111111111111414141414141414-|12121212121212121111111111111111-|
D| |-x-x-x-x-x-x-x-x-x-x-x-x-x-x-x-x-|-x-x-x-x-x-x-x-x-x-x-x-x-x-x-x-x-|
A| |o9-9-9-9-9-9-9-91212121212121212-|1010101010101010-9-9-9-9-9-9-9-9o|
E| |---------------------------------|---------------------------------|
  1. Bible in the   "What did it ever  I say , I say , I say , I say   |
     drawer          do for me"                                        |
  2. It never        Calls me when I'm down love never wanted me But I |
                                                                       |
Guitar 2                                                               |
e| |---------------------------------|---------------------------------|
B| |o--------------------------------|--------------------------------o|
G| |-4-4-4-4-4-4-4-4-7-7-7-7-7-7-7-7-|-----------------4-4-4-4-4-4-4-4-|
D| |-4-4-4-4-4-4-4-4-7-7-7-7-7-7-7-7-|-5-5-5-5-5-5-5-5-4-4-4-4-4-4-4-4-|
A| |o2-2-2-2-2-2-2-2-5-5-5-5-5-5-5-5-|-5-5-5-5-5-5-5-5-2-2-2-2-2-2-2-2o|
E| |---------------------------------|-3-3-3-3-3-3-3-3-----------------|

Guitar 1
e| |---------------------------------|---------------------------------|
B| |---------------------------------|---------------------------------|
G| |-4-4-4-4-4-4-4-41414141414141414-|12121212121212121111111111111111-|
D| |-4-4-4-4-4-4-4-4-x-x-x-x-x-x-x-x-|-x-x-x-x-x-x-x-x-x-x-x-x-x-x-x-x-|
A| |-2-2-2-2-2-2-2-21212121212121212-|1010101010101010-9-9-9-9-9-9-9-9-|
E| |---------------------------------|---------------------------------|
       * * *   * *                                                     |
     Took it anyway  Put your ear      Speaker Choose  Sympathy        |
                     to the            love or                         |
                                                                       |
Guitar 2                                                               |
e| |---------------------------------|---------------------------------|
B| |---------------------------------|---------------------------------|
G| |-4-4-4-4-4-4-4-4-7-7-7-7-7-7-7-7-|-----------------4-4-4-4-4-4-4-4-|
D| |-4-4-4-4-4-4-4-4-7-7-7-7-7-7-7-7-|-5-5-5-5-5-5-5-5-4-4-4-4-4-4-4-4-|
A| |-2-2-2-2-2-2-2-2-5-5-5-5-5-5-5-5-|-5-5-5-5-5-5-5-5-2-2-2-2-2-2-2-2-|
E| |---------------------------------|-3-3-3-3-3-3-3-3-----------------|
       * * *   * *

Guitar 1
e| |---------------------------------|---------------------------------|
B| |---------------------------------|---------------------------------|
G| |11111111111111111414141414141414-|12121212121212121111111111111111-|
D| |-x-x-x-x-x-x-x-x-x-x-x-x-x-x-x-x-|-x-x-x-x-x-x-x-x-x-x-x-x-x-x-x-x-|
A| |-9-9-9-9-9-9-9-91212121212121212-|1010101010101010-9-9-9-9-9-9-9-9-|
E| |---------------------------------|---------------------------------|
      But never both                   Love never wanted me            |
                                                                       |
Guitar 2                                                               |
e| |---------------------------------|---------------------------------|
B| |---------------------------------|---------------------------------|
G| |-4-4-4-4-4-4-4-4-7-7-7-7-7-7-7-7-|-----------------4-4-4-4-4-4-4-4-|
D| |-4-4-4-4-4-4-4-4-7-7-7-7-7-7-7-7-|-5-5-5-5-5-5-5-5-4-4-4-4-4-4-4-4-|
A| |-2-2-2-2-2-2-2-2-5-5-5-5-5-5-5-5-|-5-5-5-5-5-5-5-5-2-2-2-2-2-2-2-2-|
E| |---------------------------------|-3-3-3-3-3-3-3-3-----------------|

 _________________
|Verse (1:09-1:27)|
|_________________|

Guitar 1
e| |---------------------------------|---------------------------------|
B| |---------------------------------|---------------------------------|
G| |---------------------------------|---------------------------------|
D| |-4-4-4-4-4-4-4-4-4-4-4-4-4-4-4-4-|-4-4-4-4-4-4-4-4-4-4-4-4-4-4-4-4-|
A| |-2-2-2-2-2-2-2-2-2-2-2-2-2-2-2-2-|-2-2-2-2-2-2-2-2-2-2-2-2-2-2-2-2-|
E| |---------------------------------|---------------------------------|
     * * * * * * * * * * * * * * * *   * * * * * * * * * * * * * * * * |
     I hoped you choked                Crash your car                  |
                                                                       |
Guitar 2 (Tremolo Pick)                                                |
e| |---------------------------------|---------------------------------|
B| |---------------------------------|---------------------------------|
G| |---------------------------------|---------------------------------|
D| |-7-7-7-7-7-7-7-7-7-7-7-7-7-7-7-7-|-7-7-7-7-7-7-7-7-7-7-7-7-7-7-7-7-|
A| |---------------------------------|---------------------------------|
E| |---------------------------------|---------------------------------|

Guitar 1
e| |---------------------------------|---------------------------------|
B| |---------------------------------|---------------------------------|
G| |---------------------------------|---------------------------------|
D| |---------------------------------|-4-4-4-4-4-4-4-4-4-4-4-4-4-4-4-4-|
A| |-5-5-5-5-5-5-5-5-2-2-2-2-2-2-2-2-|-2-2-2-2-2-2-2-2-2-2-2-2-2-2-2-2-|
E| |-3-3-3-3-3-3-3-3-0-0-0-0-0-0-0-0-|---------------------------------|
     * * * * * * * * * * * * * * * *   * * * * * * * * * * * * * * * * |
     Hey     tear     catcher    thats all   that   you   are          |
                                                                       |
Guitar 2 (Tremolo Pick)                                                |
e| |---------------------------------|---------------------------------|
B| |---------------------------------|---------------------------------|
G| |---------------------------------|---------------------------------|
D| |-9-9-9-9-9-9-9-91212121212121212-|-7-7-7-7-7-7-7-7-7-7-7-7-7-7-7-7-|
A| |---------------------------------|---------------------------------|
E| |---------------------------------|---------------------------------|

Guitar 1
e| |---------------------------------|---------------------------------|
B| |---------------------------------|---------------------------------|
G| |---------------------------------|---------------------------------|
D| |-4-4-4-4-4-4-4-4-4-4-4-4-4-4-4-4-|-4-4-4-4-4-4-4-4-4-4-4-4-4-4-4-4-|
A| |-2-2-2-2-2-2-2-2-2-2-2-2-2-2-2-2-|-2-2-2-2-2-2-2-2-2-2-2-2-2-2-2-2-|
E| |---------------------------------|---------------------------------|
     * * * * * * * * * * * * * * * *   * * * * * * * * * * * * * * * * |
     Every        word                 From      the     start         |
                                                                       |
Guitar 2 (Tremolo Pick)                                                |
e| |---------------------------------|---------------------------------|
B| |---------------------------------|---------------------------------|
G| |---------------------------------|---------------------------------|
D| |-7-7-7-7-7-7-7-7-7-7-7-7-7-7-7-7-|-7-7-7-7-7-7-7-7-7-7-7-7-7-7-7-7-|
A| |---------------------------------|---------------------------------|
E| |---------------------------------|---------------------------------|


Guitar 1
e| |---------------------------------|---------------------------------|
B| |---------------------------------|---------------------------------|
G| |---------------------------------|-4-4-4-4-4-4-4-4-4-4-4-4-4-4-4-4-|
D| |---------------------------------|-4-4-4-4-4-4-4-4-x-x-x-x-x-x-x-x-|
A| |-5-5-5-5-5-5-5-5-2-2-2-2-2-2-2-2-|-2-2-2-2-2-2-2-2-2-2-2-2-2-2-2-2-|
E| |-3-3-3-3-3-3-3-3-0-0-0-0-0-0-0-0-|---------------------------------|
     * * * * * * * * * * * * * * * *   * * * * * * * *                 |
     "I      swear       I      say"                                   |
                                                                       |
Guitar 2 (Tremolo Pick)                                                |
e| |---------------------------------|---------------------------------|
B| |---------------------------------|---------------------------------|
G| |---------------------------------|---------------------------------|
D| |-9-9-9-9-9-9-9-91212121212121212-|-7-7-7-7-7-7-7-7-7-7-7-7-7-7-7-7-|
A| |---------------------------------|---------------------------------|
E| |---------------------------------|---------------------------------|

Guitar 1
e| |---------------------------------|
B| |---------------------------------|
G| |-4\----------------------4-4-4-4-|
D| |-x-----------------------4-4-4-4-|
A| |-2\----------------------2-2-2-2-|
E| |---------------------------------|
                             * * * *
       I swear I say      To hands bet
 ______________________
|Pre-Chorus (1:28-1:42)|
|______________________|
[ Tab from: https://www.guitartabs.cc/tabs/f/fall_out_boy/xo_tab_ver_2.html ]
Guitar 1
e| |---------------------------------|---------------------------------|
B| |---------------------------------|-----5---------------------------|
G| |1212121212121212-7-7-7-7-7-7-7-7-|-4-4-6-6-7-71111-6-6-6-6-3-3-3-3-|
D| |-x-x-x-x-x-x-x-x-x-x-x-x-x-x-x-x-|-x-x-x-x-x-x-x-x-x-x-x-x-x-x-x-x-|
A| |1010101010101010-5-5-5-5-5-5-5-5-|-2-2-4-4-5-5-9-9-4-4-4-4-1-1-1-1-|
E| |---------------------------------|---------------------------------|
     -ween legs,     It takes" to      drinks in the   Bar to the keys |
     to "Whatever                      club to the     to your car     |
                                                                       |
Guitar 2                                                               |
e| |---------------------------------|---------------------------------|
B| |---------------------------------|---------------------------------|
G| |-4-4-4-4-4-4-4-4-----------------|-4-4-6-6-7-7-6-6-4-4-4-4---------|
D| |-4-4-4-4-4-4-4-4-4-4-4-4-4-4-4-4-|-4-4-6-6-7-7-7-7-4-4-4-4-4-4-4-4-|
A| |-2-2-2-2-2-2-2-2-4-4-4-4-4-4-4-4-|-2-2-4-4-5-5-4-4-2-2-2-2-4-4-4-4-|
E| |-----------------2-2-2-2-2-2-2-2-|-------------------------2-2-2-2-|

Guitar 1
e| |---------------------------------|---------------------------------|
B| |---------------------------------|---------------------------------|
G| |-7-7-7-7-7-7-7-7-4-4-4-4-4-4-4-4-|-4-4-6-6-7-71111-7-7-7-7-6-6-6-6-|
D| |-x-x-x-x-x-x-x-x-x-x-x-x-x-x-x-x-|-x-x-x-x-x-x-x-x-x-x-x-x-x-x-x-x-|
A| |-5-5-5-5-5-5-5-5-2-2-2-2-2-2-2-2-|-2-2-4-4-5-5-9-9-5-5-5-5-4-4-4-4-|
E| |---------------------------------|---------------------------------|
     Car To hotel stares/stairs to     Exit door                       |
                     the emergency                                     |
                                                                       |
Guitar 2                                                               |
e| |---------------------------------|---------------------------------|
B| |---------------------------------|---------------------------------|
G| |-4-4-4-4-4-4-4-4-----------------|-4-4-6-6-7-7-6-6-4-4-4-4-4-4-4-4-|
D| |-4-4-4-4-4-4-4-4-4-4-4-4-4-4-4-4-|-4-4-6-6-7-7-7-7-4-4-4-4-4-4-4-4-|
A| |-2-2-2-2-2-2-2-2-4-4-4-4-4-4-4-4-|-2-2-4-4-5-5-4-4-2-2-2-2-2-2-2-2-|
E| |-----------------2-2-2-2-2-2-2-2-|---------------------------------|

 __________________
|Chorus (1:43-2:19)|
|__________________|

Guitar 1
e| |---------------------------------|---------------------------------|
B| |-7-7-7-7-7-7-7-7-7-7-7-7-7-7-7-7-|-7-7-7-7-7-7-7-7-7-7-7-7-7-7-7-7-|
G| |-7-7-7-7-7-7-7-7-7-7-7-7-7-7-7-7-|-6-6-6-6-6-6-6-6-6-6-6-6-6-6-6-6-|
D| |-x-x-x-x-x-x-x-x-x-x-x-x-x-x-x-x-|-x-x-x-x-x-x-x-x-x-x-x-x-x-x-x-x-|
A| |-5-5-5-5-5-5-5-5-5-5-5-5-5-5-5-5-|-4-4-4-4-4-4-4-4-4-4-4-4-4-4-4-4-|
E| |---------------------------------|---------------------------------|
     To the love, I left my conscience pressed Between the pages of the|
                                                                       |
Guitar 2 (Tremolo Pick)                                                |
e| |---------------------------------|---------------------------------|
B| |---------------------------------|---------------------------------|
G| |---------------------------------|---------------------------------|
D| |12121212121212121212121212121212-|11111111111111111111111111111111-|
A| |---------------------------------|---------------------------------|
E| |---------------------------------|---------------------------------|

Guitar 1
e| |---------------------------------|---------------------------------|
B| |o--------------------------------|--------------------------------o|
G| |11111111111111111414141414141414-|12121212121212121111111111111111-|
D| |-x-x-x-x-x-x-x-x-x-x-x-x-x-x-x-x-|-x-x-x-x-x-x-x-x-x-x-x-x-x-x-x-x-|
A| |o9-9-9-9-9-9-9-91212121212121212-|1010101010101010-9-9-9-9-9-9-9-9o|
E| |---------------------------------|---------------------------------|
  1. Bible in the   "What did it ever  I say , I say , I say , I say   |
     drawer          do for me"                                        |
  2. It never        Calls me when I'm down love never wanted me But I |
                                                                       |
Guitar 2                                                               |
e| |---------------------------------|---------------------------------|
B| |o--------------------------------|--------------------------------o|
G| |-4-4-4-4-4-4-4-4-7-7-7-7-7-7-7-7-|-----------------4-4-4-4-4-4-4-4-|
D| |-4-4-4-4-4-4-4-4-7-7-7-7-7-7-7-7-|-5-5-5-5-5-5-5-5-4-4-4-4-4-4-4-4-|
A| |o2-2-2-2-2-2-2-2-5-5-5-5-5-5-5-5-|-5-5-5-5-5-5-5-5-2-2-2-2-2-2-2-2o|
E| |---------------------------------|-3-3-3-3-3-3-3-3-----------------|

Guitar 1
e| |---------------------------------|---------------------------------|
B| |---------------------------------|---------------------------------|
G| |-4-4-4-4-4-4-4-41414141414141414-|12121212121212121111111111111111-|
D| |-4-4-4-4-4-4-4-4-x-x-x-x-x-x-x-x-|-x-x-x-x-x-x-x-x-x-x-x-x-x-x-x-x-|
A| |-2-2-2-2-2-2-2-21212121212121212-|1010101010101010-9-9-9-9-9-9-9-9-|
E| |---------------------------------|---------------------------------|
       * * *   * *                                                     |
     Took it anyway  Put your ear      Speaker Choose  Sympathy        |
                     to the            love or                         |
                                                                       |
Guitar 2                                                               |
e| |---------------------------------|---------------------------------|
B| |---------------------------------|---------------------------------|
G| |-4-4-4-4-4-4-4-4-7-7-7-7-7-7-7-7-|-----------------4-4-4-4-4-4-4-4-|
D| |-4-4-4-4-4-4-4-4-7-7-7-7-7-7-7-7-|-5-5-5-5-5-5-5-5-4-4-4-4-4-4-4-4-|
A| |-2-2-2-2-2-2-2-2-5-5-5-5-5-5-5-5-|-5-5-5-5-5-5-5-5-2-2-2-2-2-2-2-2-|
E| |---------------------------------|-3-3-3-3-3-3-3-3-----------------|
       * * *   * *

Guitar 1
e| |---------------------------------|---------------------------------|
B| |---------------------------------|---------------------------------|
G| |11111111111111111414141414141414-|12121212121212121111111111111111-|
D| |-x-x-x-x-x-x-x-x-x-x-x-x-x-x-x-x-|-x-x-x-x-x-x-x-x-x-x-x-x-x-x-x-x-|
A| |-9-9-9-9-9-9-9-91212121212121212-|1010101010101010-9-9-9-9-9-9-9-9-|
E| |---------------------------------|---------------------------------|
      But never both                   No...                    To the |
                                                                       |
Guitar 2                                                               |
e| |---------------------------------|---------------------------------|
B| |---------------------------------|---------------------------------|
G| |-4-4-4-4-4-4-4-4-7-7-7-7-7-7-7-7-|-----------------4-4-4-4-4-4-4-4-|
D| |-4-4-4-4-4-4-4-4-7-7-7-7-7-7-7-7-|-5-5-5-5-5-5-5-5-4-4-4-4-4-4-4-4-|
A| |-2-2-2-2-2-2-2-2-5-5-5-5-5-5-5-5-|-5-5-5-5-5-5-5-5-2-2-2-2-2-2-2-2-|
E| |---------------------------------|-3-3-3-3-3-3-3-3-----------------|

 __________________
|Bridge (2:20-2:33)|
|__________________|

Guitar 1
e| |---------------------------------|---------------------------------|
B| |-7-7-7-7-7-7-7-7-7-7-7-7-7-7-7-7-|-7-7-7-7-7-7-7-7-7-7-7-7-7-7-7-7-|
G| |-7-7-7-7-7-7-7-7-7-7-7-7-7-7-7-7-|-6-6-6-6-6-6-6-6-6-6-6-6-6-6-6-6-|
D| |-x-x-x-x-x-x-x-x-x-x-x-x-x-x-x-x-|-x-x-x-x-x-x-x-x-x-x-x-x-x-x-x-x-|
A| |-5-5-5-5-5-5-5-5-5-5-5-5-5-5-5-5-|-4-4-4-4-4-4-4-4-4-4-4-4-4-4-4-4-|
E| |---------------------------------|---------------------------------|
     Love   I    left my conscience    Pressed Through the keyhole I   |
                                       watched you                     |
                                                                       |
Guitar 2 (Tremolo Pick with Tremolo effect)                            |
e| |---------------------------------|---------------------------------|
B| |---------------------------------|---------------------------------|
G| |---------------------------------|---------------------------------|
D| |12121212121212121212121212121212-|11111111111111111111111111111111-|
A| |---------------------------------|---------------------------------|
E| |---------------------------------|---------------------------------|

Guitar 1
e| |---------------------------------|---------------------------------|
B| |---------------------------------|---------------------------------|
G| |-4-4-4-4-4-4-4-4-4-4-4-4-4-4-4-4-|-4-4-4-4-4-4-4-4-4-4-4-4-4-4-4-4-|
D| |-x-x-x-x-x-x-x-x-x-x-x-x-x-x-x-x-|-4-4-4-4-4-4-4-4-4-4-4-4-4-4-4-4-|
A| |-2-2-2-2-2-2-2-2-2-2-2-2-2-2-2-2-|-2-2-2-2-2-2-2-2-2-2-2-2-2-2-2-2-|
E| |---------------------------------|---------------------------------|
                                       * * * * * * * * * * * *         |
      Dress, Kiss and tell             Loose lips sink ships    To the |
                                                                       |
Guitar 2                                                               |
e| |---------------------------------|---------------------------------|
B| |---------------------------------|---------------------------------|
G| |---------------------------------|----11----11----11----11----11---|
D| |-9-9-9-9-9-9-9-9-9-9-9-9-9-9-9-9-|--12----12----12----12----12-----|
A| |---------------------------------|-9-----9-----9-----9-----9-------|
E| |---------------------------------|---------------------------------|

 __________________
|Chorus (2:34-3:02)|
|__________________|

Guitar 1
e| |---------------------------------|---------------------------------|
B| |---------------------------------|---------------------------------|
G| |11111111111111111111111111111111-|13131313131313131313131313131313-|
D| |-x-x-x-x-x-x-x-x-x-x-x-x-x-x-x-x-|-x-x-x-x-x-x-x-x-x-x-x-x-x-x-x-x-|
A| |-9-9-9-9-9-9-9-9-9-9-9-9-9-9-9-9-|11111111111111111111111111111111-|
E| |---------------------------------|---------------------------------|
     Love   I    left my conscience    Pressed Through the keyhole I   |
                                       watched you                     |
                                                                       |
Guitar 2                                                               |
e| |---------------------------------|---------------------------------|
B| |---------------------------------|---------------------------------|
G| |-4-4-4-4-4-4-4-4-4-4-4-4-4-4-4-4-|-7-7-7-7-7-7-7-7-7-7-7-7-7-7-7-7-|
D| |-4-4-4-4-4-4-4-4-4-4-4-4-4-4-4-4-|-7-7-7-7-7-7-7-7-7-7-7-7-7-7-7-7-|
A| |-2-2-2-2-2-2-2-2-2-2-2-2-2-2-2-2-|-5-5-5-5-5-5-5-5-5-5-5-5-5-5-5-5-|
E| |---------------------------------|---------------------------------|

Guitar 1
e| |---------------------------------|---------------------------------|
B| |---------------------------------|---------------------------------|
G| |-9-9-9-9-9-9-9-9-9-9-9-9-9-9-9-9-|-7-7-7-7-7-7-7-7-7-7-7-7-7-7-7-7-|
D| |-x-x-x-x-x-x-x-x-x-x-x-x-x-x-x-x-|-x-x-x-x-x-x-x-x-x-x-x-x-x-x-x-x-|
A| |-7-7-7-7-7-7-7-7-7-7-7-7-7-7-7-7-|-5-5-5-5-5-5-5-5-5-5-5-5-5-5-5-5-|
E| |---------------------------------|---------------------------------|
      Dress, Kiss and tell             Loose lips sink ships    To the |
                                                                       |
Guitar 2                                                               |
e| |---------------------------------|---------------------------------|
B| |---------------------------------|---------------------------------|
G| |---------------------------------|-4-4-4-4-4-4-4-4-4-4-4-4-4-4-4-4-|
D| |-5-5-5-5-5-5-5-5-5-5-5-5-5-5-5-5-|-4-4-4-4-4-4-4-4-4-4-4-4-4-4-4-4-|
A| |-5-5-5-5-5-5-5-5-5-5-5-5-5-5-5-5-|-2-2-2-2-2-2-2-2-2-2-2-2-2-2-2-2-|
E| |-3-3-3-3-3-3-3-3-3-3-3-3-3-3-3-3-|---------------------------------|

Guitar 1
e| |---------------------------------|---------------------------------|
B| |---------------------------------|---------------------------------|
G| |11111111111111111111111111111111-|-7-7-7-7-7-7-7-7-7-7-7-7-7-7-7-7-|
D| |-x-x-x-x-x-x-x-x-x-x-x-x-x-x-x-x-|-x-x-x-x-x-x-x-x-x-x-x-x-x-x-x-x-|
A| |-9-9-9-9-9-9-9-9-9-9-9-9-9-9-9-9-|-5-5-5-5-5-5-5-5-5-5-5-5-5-5-5-5-|
E| |---------------------------------|---------------------------------|
     Love   I    left my conscience    Pressed Through the keyhole I   |
                                       watched you                     |
                                                                       |
Guitar 2                                                               |
e| |---------------------------------|---------------------------------|
B| |---------------------------------|---------------------------------|
G| |-4-4-4-4-4-4-4-4-4-4-4-4-4-4-4-4-|-7-7-7-7-7-7-7-7-7-7-7-7-7-7-7-7-|
D| |-4-4-4-4-4-4-4-4-4-4-4-4-4-4-4-4-|-7-7-7-7-7-7-7-7-7-7-7-7-7-7-7-7-|
A| |-2-2-2-2-2-2-2-2-2-2-2-2-2-2-2-2-|-5-5-5-5-5-5-5-5-5-5-5-5-5-5-5-5-|
E| |---------------------------------|---------------------------------|

Guitar 1
e| |---------------------------------|---------------------------------|
B| |---------------------------------|---------------------------------|
G| |-6-6-6-6-6-6-6-6-6-6-6-6-6-6-6-6-|-4-4-4-4-4-4-4-4-4-4-4-4-4-4-4-4-|
D| |-x-x-x-x-x-x-x-x-x-x-x-x-x-x-x-x-|-x-x-x-x-x-x-x-x-x-x-x-x-x-x-x-x-|
A| |-4-4-4-4-4-4-4-4-4-4-4-4-4-4-4-4-|-2-2-2-2-2-2-2-2-2-2-2-2-2-2-2-2-|
E| |---------------------------------|---------------------------------|
      Dress, Kiss and tell             Loose lips sink ships    To the |
                                                                       |
Guitar 2                                                               |
e| |---------------------------------|---------------------------------|
B| |---------------------------------|---------------------------------|
G| |---------------------------------|-4-4-4-4-4-4-4-4-4-4-4-4-4-4-4-4-|
D| |-5-5-5-5-5-5-5-5-5-5-5-5-5-5-5-5-|-4-4-4-4-4-4-4-4-4-4-4-4-4-4-4-4-|
A| |-5-5-5-5-5-5-5-5-5-5-5-5-5-5-5-5-|-2-2-2-2-2-2-2-2-2-2-2-2-2-2-2-2-|
E| |-3-3-3-3-3-3-3-3-3-3-3-3-3-3-3-3-|---------------------------------|

 ________________
|Outro (3:03-3:40|
|________________|

Guitar 1
e| |---------------------------------|---------------------------------|
B| |o--------------------------------|--------------------------------o|
G| |11111111111111111111111111111111-|13131313131313131313131313131313-|
D| |-x-x-x-x-x-x-x-x-x-x-x-x-x-x-x-x-|-x-x-x-x-x-x-x-x-x-x-x-x-x-x-x-x-|
A| |o9-9-9-9-9-9-9-9-9-9-9-9-9-9-9-9-|11111111111111111111111111111111o|
E| |---------------------------------|---------------------------------|
  1. Love   I    left my conscience    Pressed                  To the |
  2. Love   I    left my conscience    Pressed                  To the |
  3. To the love, I left my conscience pressed Between the pages of the|
                                                                       |
Guitar 2                                                               | 
e| |---------------------------------|---------------------------------|
B| |o--------------------------------|--------------------------------o|
G| |-4-4-4-4-4-4-4-4-4-4-4-4-4-4-4-4-|-7-7-7-7-7-7-7-7-7-7-7-7-7-7-7-7-|
D| |-4-4-4-4-4-4-4-4-4-4-4-4-4-4-4-4-|-7-7-7-7-7-7-7-7-7-7-7-7-7-7-7-7-|
A| |o2-2-2-2-2-2-2-2-2-2-2-2-2-2-2-2-|-5-5-5-5-5-5-5-5-5-5-5-5-5-5-5-5o|
E| |---------------------------------|---------------------------------|

Guitar 1 & 2
e| |---------------------------------|---------------------------------|
B| |---------------------------------|---------------------------------|
G| |-7~~~----------------------------|---------------------------------|
D| |(7)~~----------------------------|---------------------------------|
A| |-5~~~----------------------------|---------------------------------|
E| |---------------------------------|---------------------------------|
     Bible in the   "What did it ever  I say
     drawer          do for me"

 ________
| Legend |
|________|

* - Palm Mute
x - Mute
~ - Sustain
\ - Slide down
 _______
| Notes |
|_______|

I only changed the layout to correspond with my other tabs. I made little or no
change to the notes in the song and I might do that later. In the Pre-Chorus,
where it says "stares/stairs", it could mean one or the other meaning.