Fall Out Boy - Dance Dance Live Chords & Tabs

 

Dance Dance Live Chords & Tabs

Fall Out Boy Chords & Tabs

Version: 1 Type: Bass Tab

Dance Dance Live Bass Tab

Song: Dance, Dance (Live)
Artist: Fall Out Boy
Album: From Under the Cork Tree
Tuning: Standard
Tabbed By: Kidd_Vicious696


Intro/Verse:
G---------------------------|
D---------------------------|
A-22-5-----------5-5--------|
E--------555-33-----555-----| x7

Pre-Chorus:
G----------------------------------|
D----------------------------------|
A-2222-5555-3333-5555--------------|
E----------------------------------| x2

Chorus:
G---------------------------|
D---------------------------|
A-22-5-----------5-5--------|
E--------555-33-----555-----| x4

Post Chorus/Verse
G------------------------------|
D------------------------------|
A-22-5-----------5-5-----------|
E--------555-33------555-------| x7

Pre-Chorus:
G-----------------------------|
D-----------------------------|
A-22-5-----------5-5----------|
E--------555-33-----555-------| x2

Chorus x4
[ Tab from: https://www.guitartabs.cc/tabs/f/fall_out_boy/dance_dance_live_btab.html ]
Bridge
G---------------------------------------------------------|
D---------------------------------------------------------|
A-2222222-4444444-55555555-6666-7777----------------------|x4
E---------------------------------------------------------|

Chorus x8

Outro:
G-----------------------------|
D-----------------------------|
A-22-5-----------5-5----------|
E--------555-33-----555-------| x6

Here ya go, a Dance, Dance tab by Fall Out Boy. Iím 100% sure on the intro, and when I 
them play it on Carson (which you can watch at www.Idobi.com) I know that is the way Pete 
playing the parts that are played the same as the intro. Iím not so sure about it on the
album though. Thanx for checking out my tab and please vote! Any questions or comments
free to email me at skitills64@yahoo.com and if you decide to post my tab somewhere else
ask me through email first.
1.8.06- I did an update on the pre-chorus, because I found out I was incorrect.