Eyes Set To Kill - Behind These Eyes Chords & Tabs

 

Behind These Eyes Chords & Tabs

Eyes Set To Kill Chords & Tabs

Version: 1 Type: Chords

Behind These Eyes Chords

   
Eyes Set To Kill
Behind These Eyes
Reach
2008
Submitted by: paramore_fans@yahoo.com

One of the hardest ES2K songs to play on guitar!!!
It has a Great Guitar Solo after the bridge!!!

Key: F

Tuning: Standard EADGBe

Chords used:
Dm -  xx0231
Bb -  x13331
F -   133211
C -   x32010
A -   x02220
Gm -  355333
C/E - 032xxx
G# -  466544


Intro: Dm


Verse 1:
Dm         A    Bb
Colour the dark past
               A
(with brighter imagery)
Dm         A          Bb
Fill blank lines with white lies
              A          Dm
stop to think then cover up
A      Dm       Bb  A
my memories (My memories)
Dm         A          Bb
Fill blank lines with white lies
              A          Dm
stop to think then cover up


Refrain:
Bb                      Dm
  Itís this distance we need
                       Bb
(to erase and to start clean)
Itís this distance
   Dm
we need (to forget)


Chorus:
Bb                 Gm
  These miles give me the time to
Dm                          Bb
think of the differences we make
              Gm           Dm
With you Iíll always be missing
(the pieces of me you break)
Bb                 Gm
Now that I hear my heart clearly
Dm
  (The words I couldnít say)
 Bb
Speak through my heart
Gm
now that Iíve changed
Dm
  (you can see you can see)
Bb                F
All the lies that hide my
Dm
  (you could see inside)
Bb                  F
  All the lies hide behind my eyes


Verse 2:
Dm         A
Bring back night to
Bb
day (feel my heartbeat)
Dm  A        Bb
To erase the pain
(of my memories)
Dm          A      Bb
  (When the sunset fades the
          Gm
moonlight tears my body
Dm    A       Bb
  til morning rays bring
        Gm
me to a better place)


(Repeat Refrain and Chorus)


Guitar Solo:

Moderate: Dm--Bb-Dm x4
                    Dm
e|---------5-------10----------17----------|
B|-------6---6---6----10----------18-17-18-|
G|-----7-------7---------10----------------|
D|---7----------------------12-------------|
A|-5---------------------------------------|
E|-----------------------------------------|

e|---------5-------10----------15h17p15-13h15p12-|
B|-------6---6---6----10-------------------------|
G|-----7-------7---------10----------------------|
D|---7----------------------12-------------------|
A|-5---------------------------------------------|
E|-----------------------------------------------|

                     Bb
e|---------5-----17-18-17-16-13-12-13-------|
B|-------6---6------------------------13----|
G|-----7-------7-------------------------14-|
D|---7--------------------------------------|
A|-5----------------------------------------|
E|------------------------------------------|
[ Tab from: https://www.guitartabs.cc/tabs/e/eyes_set_to_kill/behind_these_eyes_crd.html ]
                     Dm
e|---------5-------10----------15h17p15-13h15p12-|
B|-------6---6---6----10-------------------------|
G|-----7-------7---------10----------------------|
D|---7----------------------12-------------------|
A|-5---------------------------------------------|
E|-----------------------------------------------|

                        Dm
e|--------------------------------------------------------|
B|--------------------------------------------------------|
G|-7-7--7-7----------------5--7-7--7-7--------------2-----|
D|-7-7--7-7--3h5p3--2h3p2-----7-7--7-7--3h5--2h3p2--------|
A|-5-5--5-5-------------------5-5--5-5--------------------|
E|--------------------------------------------------------|
                                                         |
              Bb                         Dm              | x2
e|---------------------------|----------------------------|
B|---------------------------|----------------------------|
G|-3-3--3-3----------------5-|-7-7--7-7--------------2----|
D|-3-3--3-3--3h5p3--2h3p2----|-7-7--7-7--3h5--2h3p2-------|
A|-1-1--1-1------------------|-5-5--5-5-------------------|
E|---------------------------|----------------------------|


Very Fast: You must learn the sweeping technique
like Matt Tuck and Padge of Bullet for my
Valentine do to play this very fast part!!!
This part is Triplets


Bb--C--Dm--C/E-F-- x3, Bb--C-

                  Bb                                      C
E|--13----------------13----------------|-15----------------15-------------------|
B|-----15----15----------15----15-------|----17----17----------17----17----------|
G|--------15----15----------15----15----|-------17----17----------17----17-------|
D|-----------------15----------------15-|----------------17----------------17----|
A|--------------------------------------|----------------------------------------|
E|--------------------------------------|----------------------------------------|
                                                                                | x3
                  Dm                            C/E                 
          |
e|-17----------------------------------|-20----------------|-17------------------|
B|----18----18-------20----------------|----22----22-------|----18----18---------|
G|-------19----19-------21----21-------|-------22----22----|-------17----17------|
D|----------------19-------22----22----|----------------22-|----------------15---|
A|----------------------------------19-|-------------------|---------------------|
E|-------------------------------------|-------------------|---------------------|

                  Bb                                   C
E|--13----------------13----------------|-15-----------------17h18-17-|
B|-----15----15----------15----15-------|----17----17-----------------|
G|--------15----15----------15----15----|-------17----17--------------|
D|-----------------15----------------15-|----------------17-----------|
A|--------------------------------------|-----------------------------|
E|--------------------------------------|-----------------------------|


Outro:
 Dm
(Let it go pull the
A
weight off my shoulders
Dm              A
lets hope for a new beginning
(Repeat)

Dm            A
Weíll set our feelings aside
Dm         F
and forget what weíve said
Dm          A
thereís not enough time to hide
Dm             A              G#(hold)
  behind these eyes of regret)