Everyday Sunday - Ill Get Over It Chords & Tabs

 

Ill Get Over It Chords & Tabs

Everyday Sunday Chords & Tabs

Version: 1 Type: Tab

Ill Get Over It Tab

   
---------------------------------------------------------------------------
		     Iíll Get Over It Ė Everyday Sunday
---------------------------------------------------------------------------
Tabbed by: GuitarMan479
Email: amp.566@hotmail.com

Tuning: Standard (EADGBe)

This is great song from Everyday Sundayís album Wake Up! Wake Up! I believe this tab is 
95% correct. I may have missed some stuff, especially the fast part of the solo, but I 
my best. Let me know if you donít understand the solo and feel free to leave 
comments and corrections. Thank you and god bless.

Intro Gtr1
e|-------------------------------------------------------------|
B|-------------------------------------------------------------|
G|-55555555555555----------------------------------------------|
D|-55555555555555-55555555555555-77777777777777-333333-555555--| (x5)
A|-33333333333333-55555555555555-77777777777777-333333-555555--|
E|----------------33333333333333-55555555555555-111111-333333--|
   .............. .............. .............. ...... ......
Intro Gtr2
e|-------------------------------------------------------------|
B|-------------------------------------------------------------|
G|----5-5---5-5------------------------------------------------|
D|----5-5---5-5------5-5---5-5------7-7---7-7------3-3----5-5--| (x5)
A|----3-3---3-3------5-5---5-5------7-7---7-7------3-3----5-5--|
E|-------------------3-3---3-3------5-5---5-5------1-1----3-3--|

The intro is played all the way through the 1st verse.

Prechorus Gtr1
e|---------------------------------------------------------------|
B|---------------------------------------------------------------|
G|---------------------------------------------------------------|
D|-333333333333333-555555555555555-777777-99999------------------|
A|-333333333333333-555555555555555-777777-99999------------------|
E|-111111111111111-333333333333335-555555-77777------------------|
   ............... ............... ...... .....

Prechorus Gtr2
e|---------------------------------------------------------------|
B|---------------------------------------------------------------|
G|---------------------------------------------------------------|
D|-333333333333333-555555555555555-777777-99999------------------|
A|-333333333333333-555555555555555-777777-99999-999-777-555-777--|
E|-111111111111111-333333333333333-555555-77777------------------|
   ............... ............... ...... .....

Chorus Gtr1
e|----------------------------------------------------------------|
B|----------------------------------------------------------------|
G|-555555555555555-444444444444444--------------------------------|
D|-555555555555555-444444444444444-333333333333333-444444-555555--| (x2)
A|-333333333333333-222222222222222-333333333333333-444444-555555--|
E|---------------------------------111111111111111-222222-333333--|

Chorus Gtr2
e|----------------------------------------------------------------|
B|----------------------------------------------------------------|
G|-555555555555555-444444444444444--------------------------------|
D|-555555555555555-444444444444444-333333333333333-444444-555555--| (x2)
A|-333333333333333-222222222222222-333333333333333-444444-555555--|
E|---------------------------------111111111111111-222222-333333--|

Verse 2 Gtr1
e|--------------------------------|
B|--------------------------------|
G|-555555555555555----------------|
D|-555555555555555-555555-777777--|
A|-333333333333333-333333-777777--|
E|-----------------333333-555555--|
   ............... ...... ......

Verse 2 Gtr2
e|--------------------------------|
B|--------------------------------|
G|----5-5---5-5-------------------|
D|----5-5---5-5-------5-5----7-7--|
A|----3-3---3-3-------5-5----7-7--|
E|--------------------3-3----5-5--|


Verse 2 Gtr1 (Cont.)
e|----------------------------------------------------------------|
B|----------------------------------------------------------------|
G|-555555555555555------------------------------------------------|
D|-555555555555555-555555555555555-777777777777777-333333-555555--| (x2)
A|-333333333333333-555555555555555-777777777777777-333333-555555--|
E|-----------------333333333333333-555555555555555-111111-333333--|
   ............... ............... ............... ...... ......

Verse 2 Gtr2 (Cont.)
e|----------------------------------------------------------------|
B|----------------------------------------------------------------|
G|-555555555555555------------------------------------------------|
D|-555555555555555-555555555555555-777777777777777-333333-555555--| (x2)
A|-333333333333333-555555555555555-777777777777777-333333-555555--|
E|-----------------333333333333333-555555555555555-111111-333333--|
   ............... ............... ............... ...... ......

Prechorus Gtr1
e|---------------------------------------------------------------|
B|---------------------------------------------------------------|
G|---------------------------------------------------------------|
D|-333333333333333-555555555555555-777777-99999------------------|
A|-333333333333333-555555555555555-777777-99999------------------|
E|-111111111111111-333333333333335-555555-77777------------------|
   ............... ............... ...... .....
[ Tab from: https://www.guitartabs.cc/tabs/e/everyday_sunday/ill_get_over_it_tab.html ]
Prechorus Gtr2
e|---------------------------------------------------------------|
B|---------------------------------------------------------------|
G|---------------------------------------------------------------|
D|-333333333333333-555555555555555-777777-99999------------------|
A|-333333333333333-555555555555555-777777-99999-999-777-555-777--|
E|-111111111111111-333333333333333-555555-77777------------------|
   ............... ............... ...... .....

Chorus Gtr1
e|----------------------------------------------------------------|
B|----------------------------------------------------------------|
G|-555555555555555-444444444444444--------------------------------|
D|-555555555555555-444444444444444-333333333333333-444444-555555--| (x2)
A|-333333333333333-222222222222222-333333333333333-444444-555555--|
E|---------------------------------111111111111111-222222-333333--|


Chorus Gtr2
e|----------------------------------------------------------------|
B|----------------------------------------------------------------|
G|-555555555555555-444444444444444--------------------------------|
D|-555555555555555-444444444444444-333333333333333-444444-555555--| (x2)
A|-333333333333333-222222222222222-333333333333333-444444-555555--|
E|---------------------------------111111111111111-222222-333333--|

Bridge Gtr1
e|------------------------------|
B|------------------------------|
G|------------------------------|
D|-333333-44444444444444-555555-|
A|-333333-44444444444444-555555-|
E|-111111-22222222222222-333333-|

Bridge Gtr2
e|------------------------------|
B|------------------------------|
G|------------------------------|
D|-333333-44444444444444-555555-|
A|-333333-44444444444444-555555-|
E|-111111-22222222222222-333333-|


Solo Gtr1 (There are no 0ís, 1ís, 2ís, or 5ís in this solo, and this whole solo is 
on the 1st (e) string)

E|-8-15-15-15-12-12-12-10-10-10-10-10-10-8-15-15-15-12-12-12-8-8-8-8-8-8-8-|

E|-8-10-10-10-12-12-12-10-10-10-10-10-10-8p7-7-7-7-7-7-8-8-8-8-8-8-15-15-15|

e|-12-12-12-10-10-10-10-10-10-8-15-15-15-17-17-17-15-15-13-12-12-12-12-12--|

         |--------fast part----------------------|
e|-12-12-10-12-13-12-10-11-10-8-9-8-6-8-10-8~----|

Solo Gtr2 (Plays the chorus throughout the solo.)
e|----------------------------------------------------------------|
B|----------------------------------------------------------------|
G|-555555555555555-444444444444444--------------------------------|
D|-555555555555555-444444444444444-333333333333333-444444-555555--| (x2)
A|-333333333333333-222222222222222-333333333333333-444444-555555--|
E|---------------------------------111111111111111-222222-333333--|

Prechorus Gtr1
e|-10-10-10-7-7-7-7-7-7-7-7-7-7-5-5-5-8-8-8-8-8-8-8-8-8-8--------------|
B|---------------------------------------------------------------------|
G|---------------------------------------------------------------------| (x2)
D|---------------------------------------------------------------------|
A|---------------------------------------------------------------------|
E|---------------------------------------------------------------------|

Prechorus Gtr2                                  |These are 12ís and 14ís|
e|---------------------------------------------------------------------|
B|---------------------------------------------------------------------|
G|----------------------------------------------14-14-14--14-14--14-14-|
D|-333333333333333-555555555555555-777777-99999-14-14-14--14-14--14-14-|
A|-333333333333333-555555555555555-777777-99999-12-12-12--12-12--12-12-|
E|-111111111111111-333333333333333-555555-77777------------------------|
   ............... ............... ...... ..... .

Prechorus Gtr2 (Cont.)
e|---------------------------------------------------------------|
B|---------------------------------------------------------------|
G|---------------------------------------------------------------|
D|-333333333333333-555555555555555-777777-99999------------------|
A|-333333333333333-555555555555555-777777-99999-999-777-555-777--|
E|-111111111111111-333333333333333-555555-77777------------------|
   ............... ............... ...... .....

Chorus Gtr1
(solo is played for this chorus)

Chorus Gtr2
e|----------------------------------------------------------------|
B|----------------------------------------------------------------|
G|-555555555555555-444444444444444--------------------------------|
D|-555555555555555-444444444444444-333333333333333-444444-555555--| (x2)
A|-333333333333333-222222222222222-333333333333333-444444-555555--|
E|---------------------------------111111111111111-222222-333333--|

Outro Gtr1
e|-------------------------------|
B|-------------------------------|
G|-------------------------555~--|
D|-333333-44444-5555555555-555~--|
A|-333333-44444-5555555555-333~--|
E|-111111-22222-3333333333-------|


Outro Gtr2
e|-------------------------------|
B|-------------------------------|
G|-------------------------555~--|
D|-333333-44444-5555555555-555~--|
A|-333333-44444-5555555555-333~--|
E|-111111-22222-3333333333-------|


| .  palm mute
| /  slide up
| \  slide down
| h  hammer-on
| p  pull-off
| ~  vibrato
| +  harmonic
| x  Mute note
==========================================================================