Eskimo Callboy - Party At The Horror House Chords & Tabs

 

Party At The Horror House Chords & Tabs

Eskimo Callboy Chords & Tabs

Version: 1 Type: Bass Tab

Party At The Horror House Bass Tab

   
Hello! Here are my first tabs I've ever made so the first song I've learned myself, from 
hearing. There may be some mistakes (I am almost sure there are) but the biggest part 
of the tabs seems to be ok. Hope I helped my bass mates :)
Enjoy!

Tuning:C G C F (Drop C)

F|------------------------------------------|
C|------------------------------------------|
G|-----------------9------------------------|   x2
C|-44224474-4222---10972--474--4474--44-3-0|

I am really not sure if it is well!
F|----------------------------------------|
C|----------------------------------------|
G|----------------------------------------|
C|-000-0-0-0444-4-4-4777-7-7-7666-6-6-6---|

F|----------------------------------------|
C|----------------------------------------|
G|----------------------------------------|
C|-000-0-0-0444-4-4-4777-7-7--------------|

F|--------------------------------------------|
C|--------------------------------------------|
G|--------------------------------------------|
C|-111111-1-1-11111111---111111-1-1-1-1111111|

F|--------------------------------------|
C|--------------------------------------|
G|--------------------------------------|
C|-00365b-000-0000000-0365b-000-0000000|

F|----------------------------------------------------------|
C|----------------------------------------------------------|
G|----------------------------------------------------------|
C|-111111-1-1-1-111111~-111111~-111111-1-1-1-111111~-111111~|

F|----------------------------------|
C|----------------------------------|
G|----------------------------------| x2
C|-00000007-222222224444444477777777|
[ Tab from: https://www.guitartabs.cc/tabs/e/eskimo_callboy/party_at_the_horror_house_btab.html ]
F|-------------------------------------|
C|-------------------------------------|
G|-------------------------------------|
C|-000-0-0-0444-4-4-4777-7-7-7666-6-6-6|

F|----------------------------------------|
C|----------------------------------------|
G|----------------------------------------|
C|-000-0-0-0444-4-4-4777-7-7--------------|

F|-----------------------------------------|
C|-----------------------------------------|
G|----------------9------------------------|  x2
C|-447444744474--1097b--474--4474--44-3-0|

F|--------------------|        F|--------|
C|--------------------|        C|--------|
G|--------------------| x3 +   G|--------|
C|-00365b-000-0000000|        C|-0365b--|

F|----------------------------------------------------------|
C|----------------------------------------------------------|
G|----------------------------------------------------------|
C|-111111-1-1-1-111111~-111111~-111111-1-1-1-111111~-111111~|

F|----------------------------------|
C|----------------------------------|
G|----------------------------------| x2
C|-00000007-222222224444444477777777|

F|-------------------------------------|
C|-------------------------------------|
G|-------------------------------------|
C|-000-0-0-0444-4-4-4777-7-7-7666-6-6-6|

F|----------------------------------------|
C|----------------------------------------|
G|----------------------------------------|
C|-000-0-0-0444-4-4-4777-7-7--------------|

F|-----------------------------------------|
C|-----------------------------------------|
G|-----------------------------------------|
C|-----4~---5--5--4~----2--5--4~----5~---4~|

F|---------------------------------|                        F|--|
C|---------------------------------|                        C|--|
G|---------------------------------| x4 and end with simple G|--|
C|-00000000999999994444444422222222|                        C|-0|