Escape The Fate - Something Chords & Tabs

 

Something Chords & Tabs

Escape The Fate Chords & Tabs

Version: 1 Type: Bass Tab

Something Bass Tab

   
Escape the Fate
Something
Drop c
This war is ours
Tabbed by: Synysterblack


-Intro-
F|--------------------------------------|
C|--------------------------------------|
G|------------------333333-3333-6-6-6---|
C|-666666-6666-6-6-6--------------------|

F|--------------------------------------|
C|--------------------------------------|
G|------------------333333-3333-6-6-6---|
C|-666666-6666-6-6-6--------------------|

-Verse 1-
F|---------------------------------------------------------------------|
C|---------------------------------------------------------------------|
G|-----------------------5-55-11111111-3-3-3-33-33-3333-3-3-3-33-33-5~-|
C|-6-6-6-66-66-6666-6-6-6----------------------------------------------|
                            (These are 11 not ones)
F|---------------------------------------------------------------------|
C|---------------------------------------------------------------------|
G|-----------------------5-55-11111111-3-3-3-33-33-3333-3-3-3-33-33-5~-|
C|-6-6-6-66-66-6666-6-6-6----------------------------------------------|

F|-------------------------------------------------------------------|
C|-------------------------------------------------------------------|
G|-------------------------11111111-5555-33333333333333333333-5555---|
C|-666666666666666666666666------------------------------------------|
                         (These are 11 not ones)
F|------------------------------------------------------------------9---|
C|--------------------------------------------------------------9-10----|
G|-------------------------11111111-5555-333333333333333333-9-10--------|
C|-666666666666666666666666---------------------------------------------|

-Pre-chorus 1- 
F|------|----------------|
C|------|----------------|
G|------|----------------|
C|-33~--|-6666-6666-66---|

-Chorus 1-
F|------------------------------------------------------------------------|
C|------------------------------------------------------------------------|
G|-6-6-66-65-5-55-53-3-33-33-3-33-3-----------------------------33-55-5---|
C|---------------------------------6-6-66-65-5-55-53-3-33-3-33-3----------|

F|-------------------------------------------------------|
C|-------------------------------------------------------|
G|-6-6-66-65-5-55-53-3-33-33-3-33-3----------------------|
C|---------------------------------6-6-66-65-5-55-5-3~---|

-Verse 2-
F|---------------------------------------------------------------------|
C|---------------------------------------------------------------------|
G|--------------------------------533333333333333333333333333333333----|
C|-6666666666666666666666666666666-------------------------------------|
[ Tab from: https://www.guitartabs.cc/tabs/e/escape_the_fate/something_btab.html ]
F|---------------------------------------------------------------------|
C|---------------------------------------------------------------------|
G|--------------------------------533333333333333333333333333333333----|
C|-6666666666666666666666666666666-------------------------------------|

F|------------------------------------------------------------------------------------|
C|------------------------------------------------------------------------------------|
G|-----6666----6666----6666----6666----6666-3-3-3-3-3-3-3-3-3-3-3-3/1818181818181818--|
C|-6666----6666----6666----6666----6666-----------------------------------------------|

-Pre-chorus 2-
F|---------------------------|
C|---------------------------|
G|-----(3/6)-----------------|Play the stuff in the brackets if you want you can kind of
C|-33~-------6666-6666-66----|hear it in the song

-Chorus 2-
F|------------------------------------------------------------------------|
C|------------------------------------------------------------------------|
G|-6-6-66-65-5-55-53-3-33-33-3-33-3-----------------------------33-55-5---|
C|---------------------------------6-6-66-65-5-55-53-3-33-3-33-3----------|

F|-------------------------------------------------------|
C|-------------------------------------------------------|
G|-6-6-66-65-5-55-53-3-33-33-3-33-3----------------------|
C|---------------------------------6-6-66-65-5-55-5-3~---|

-Bridge 1- During solo
F|---------------------------------------------------------------|
C|---------------------------------------------------------------|
G|-3-3-3-3-3-3-3-3---------------5-5-5-5-5-5-5-5----6~----5~-----|
C|----------------3-3-3-3-3-3-3-3---------------6666--5555-------|

F|---------------------------------------------------------|
C|---------------------------------------------------------|
G|-3-3-3-3-3-3-3-3---------------5-5-5-5-5-5-5-5----6~-----|
C|----------------3-3-3-3-3-3-3-3---------------6666-5~----|

-Break-
F|--------------|
C|--------------|
G|--------------|
C|--------------|

-Pre-chorus 3-
F|-------|---------|
C|-------|---------|
G|-3-----|---------|
C|-------|-66------|

-Chorus 3-
F|-----------------------------------------------------------------------|
C|-----------------------------------------------------------------------|
G|-6-6-66-65-5-55-53-3-33-33-3-33-3--------------------------------------|
C|---------------------------------6-6-66-65-5-55-5-333333-3333-333-3-3--|

F|---------------------------------------------------|
C|---------------------------------------------------|
G|-6-6-66-65-5-55-5----6~----5~----------------------|
C|-----------------6666--5555--6-6-66-65-5-55-5-3~---|

-End-
F|-------------------------------------------------------------------|
C|-------------------------------------------------------------------|
G|------------------333333-3333-6-6-6-----------------33333-3333-----|
C|-666666-6666-6-6-6-----------------666666-6666-6-6-6---------------|