Escape The Fate - Harder Than You Know Solo Chords & Tabs

 

Harder Than You Know Solo Chords & Tabs

Escape The Fate Chords & Tabs

Version: 1 Type: Tab

Harder Than You Know Solo Tab

   
HARDER THAN YOU KNOW- Escape the Fate
Drop C
E-mail: UnAverageKid2@aim.com

~ = vibrato
/ = slide up
\ = slide down
b() = bend (to)

D|----------------------------------------------|
A|------------------------/1513~-------3------56|
F|--9/101210~-10/121514~----------235----357-|
C|------------12----------------0235----357-----|
G|8~8-------------------------------------------|
C|----------------------------------------------|
pm                              ................
[ Tab from: https://www.guitartabs.cc/tabs/e/escape_the_fate/harder_than_you_know_solo_tab.html ]
D|------------------------------------13-------13-------------|
A|/1110------10*10*b(11*)-----------1313b(14)1313b(14)--------|
F|-----10-10------------10-101210~------------------14\1210~|
C|-------12----------------11---------------------------------|
G|------------------------------------------------------------|
C|------------------------------------------------------------|

Another guitar plays:
D|---------|
A|---------|
F|---------|
C|12~11~10~|
G|---------|
C|---------|
during the second part.  Listen for the timing