Escape The Fate - As Youre Falling Down Chords & Tabs

 

As Youre Falling Down Chords & Tabs

Escape The Fate Chords & Tabs

Version: 2 Type: Bass Tab

As Youre Falling Down Bass Tab

   
As Your Falling Down
Escape the Fate
Drop C
Tabbed By: Synysterblack

-Intro-
F|-------------------------------------------------------------------|
C|-------------------------------------------------------------------|
G|---------------------------------------------------------------6~--|
C|-5-55-55-55-5-6-3-5-55-55-55-5-6~-5-55-55-55-5-6-3-5-55-55-55-5----|

-Verse-
F|----------------------------------|
C|----------------------------------|
G|-5555--------8888-----------------|
C|-------8888-------10-8-7-55-7-5---|

F|----------------------------------|
C|----------------------------------|
G|-5555--------8888-----------------|
C|-------8888-------10-8-7-55-7-5---|

-Pre-chorus-
F|-----------------------------------------------------------|
C|-----------------------------------------------------------|
G|-5~555555555555--------------8~888888888888-3~3333-4~4444--|
C|---------------8~888888888888------------------------------|

F|------------------------------------------------------------|
C|------------------------------------------------------------|
G|-5~555555555555--------------8~888888888888-----------------|
C|---------------8~888888888888--------------10-8-7-55-7-5----|

-Chorus-
F|----------------------------------------------------------------|
C|----------------------------------------------------------------|
G|------------------------------5~55-5-55-55557-4~44-44-3~33-33---|
C|-3~33-3-33-3333-7~77-7-77-7777----------------------------------|

F|----------------------------------------------------------------|
C|----------------------------------------------------------------|
G|------------------------------5~55-5-55-55557-4~44-44-3~33-33---|
C|-3~33-3-33-3333-7~77-7-77-7777----------------------------------|

-Verse 2-
F|----------------------------------|
C|----------------------------------|
G|-5555--------8888-----------------|
C|-------8888-------10-8-7-55-7-5---|

F|----------------------------------|
C|----------------------------------|
G|-5555--------8888-----------------|
C|-------8888-------10-8-7-55-7-5---|

-Pre-chorus 2-
F|-----------------------------------------------------------|
C|-----------------------------------------------------------|
G|-5~555555555555--------------8~888888888888-3~3333-4~4444--|
C|---------------8~888888888888------------------------------|

F|------------------------------------------------------------|
C|------------------------------------------------------------|
G|-5~555555555555--------------8~888888888888-----------------|
C|---------------8~888888888888--------------10-8-7-55-7-5----|
[ Tab from: https://www.guitartabs.cc/tabs/e/escape_the_fate/as_youre_falling_down_btab_ver_2.html ]
-Chorus 2-
F|----------------------------------------------------------------|
C|----------------------------------------------------------------|
G|------------------------------5~55-5-55-55557-4~44-44-3~33-33---|
C|-3~33-3-33-3333-7~77-7-77-7777----------------------------------|

F|-------------------------------------------------------------------------|
C|-------------------------------------------------------------------------|
G|------------------------------5~55-5-55-55557-4~44-44-3~33-33------------|
C|-3~33-3-33-3333-7~77-7-77-7777--------------------------------0~0x--0~0x-|

-Bridge-
F|----------------------------------------------------------------------|
C|----------------------------------------------------------------------|
G|-5555555555555555----------------8888888888888887-33333333-44444444---|
C|-----------------8888888888888888-------------------------------------|

F|----------------------------------------------------------------------|
C|----------------------------------------------------------------------|
G|-5555555555555555----------------8888888888888887-33333333-44444444---|
C|-----------------8888888888888888-------------------------------------|

F|----------------------------------------------------------------------|
C|----------------------------------------------------------------------|
G|-5555555555555555----------------8888888888888887-33333333-44444444---|
C|-----------------8888888888888888-------------------------------------|

F|----------------------------------------------------------------------|
C|----------------------------------------------------------------------|
G|-5555555555555555----------------8888888888888887-33333333-44444444---|
C|-----------------8888888888888888-------------------------------------|

-Verse 3-
F|----------------------------------|
C|----------------------------------|
G|-5555--------8888-----------------|
C|-------8888-------10-8-7-55-7-5---|

F|----------------------------------|
C|----------------------------------|
G|-5555--------8888-----------------|
C|-------8888-------10-8-7-55-7-5---|

-Chorus 3-
F|----------------------------------------------------------------|
C|----------------------------------------------------------------|
G|------------------------------5~55-5-55-55557-4~44-44-3~33-33---|
C|-3~33-3-33-3333-7~77-7-77-7777----------------------------------|

F|----------------------------------------------------------------|
C|----------------------------------------------------------------|
G|------------------------------5~55-5-55-55557-4~44-44-3~33-33---|
C|-3~33-3-33-3333-7~77-7-77-7777----------------------------------|

-End-
F|----------------|
C|----------------|
G|----------------|
C|-0~0x0~0x-3\---|