Escape The Fate - 10 Miles Wide Chords & Tabs

 

10 Miles Wide Chords & Tabs

Escape The Fate Chords & Tabs

Version: 1 Type: Tab

10 Miles Wide Tab

   
10 MILES WIDE- Escape the Fate
Drop C
E-mail: UnAverageKid2@aim.com

~= vibrato
h= hammer-on
p= pull-off
x= scratch
\= slide down
/= slide up
//= pick slide
bb= slow bend
+= natural harmonic
*= pinch harmonic

Intro

Guitar 1
D|----------------------|----------------xxxx|
A|----------------------|----------------xxxx|
F|----------------------|----------------xxxx|
C|----------------------|----------------xxxx|
G|5*p0----8*p0---4-5h7p5|5*p0----8*p0----xxxx|
C|--0000--3-0-------|--0000--3-0-xxxx|
pm    ....                   ....
(continued)
D|----------------------|----------------------|
A|----------------------|----------------------|
F|----------------------|----------------------|
C|----------------------|----------------------|
G|5*p0----8*p0---4-5h7p5|5*p0----8*p0---4-5h7p5|
C|--0000--3-0-------|--0000--3-0-------|
pm    ....                   ....

Guitar 2
D|----------------------|----------------xxxx|
A|----------------------|4+--------------xxxx|
F|----------------------|4+--------------xxxx|
C|----------------------|----------------xxxx|
G|----------------------|----------------xxxx|
C|----------------------|----------------xxxx|

Verse 1

Guitar 1
D|------------|------------|------------|----------------|
A|------------|------------|------------|----------------|
F|------------|------------|------------|----------------|
C|------------|------------|------------|----------------|
G|5-58585-----|5-58585-----|5-58585-----|--------44447777|
C|--------7-7\|--------7-7\|--------7-7\|55558888--------|
pm. ..... . .  . ..... . .  . ..... . .  ................

Chorus

Guitar 1
D|--------|--------|--------|--------|
A|--------|--------|--------|--------|
F|--------|--------|--------|--------|
C|7-7533-3|3-3532-2|7-7533-3|3-3532-2|
G|5-5301-1|3-3532-2|5-5301-1|3-3532-2|
C|--------|3-3532-2|--------|3-3532-2|

Solo

Guitar 1
D|----------------------|----------------------|
A|----------------------|----------------------|
F|----------------------|----------------------|
C|----------------------|----------------------|
G|5*p0----8*p0---4-5h7p5|5*p0----8*p0---4-5h7p5|
C|--0000--3-0-------|--0000--3-0-------|
pm    ....                   ....
(continued)
D|----------------------|----------------------|
A|----------------------|----------------------|
F|----------------------|----------------------|
C|----------------------|----------------------|
G|5*p0----8*p0---4-5h7p5|5*p0----8*p0---4-5h7p5|
C|--0000--3-0-------|--0000--3-0-------|
pm    ....                   ....

Guitar 2
D|-----------------12-13|
A|/15~-15-1515~-15-15-|
F|-------14--------------|
C|-----------------------|
G|-----------------------|
C|-----------------------|

Verse 2

Guitar 1
D|------------|------------|------------|----------------|
A|------------|------------|------------|----------------|
F|------------|------------|------------|----------------|
C|------------|------------|------------|----------------|
G|5-58585-----|5-58585-----|5-58585-----|--------44447777|
C|--------7-7\|--------7-7\|--------7-7\|55558888--------|
pm. ..... . .  . ..... . .  . ..... . .  ........(release)

Guitar 2
D|---------5-|----------------|--------5-|555577771212121213-13-|
A|15~----6-6-|--------6*----6*|------6-6-|6666888814141414--15-15|
F|-----77-7-7-7|----7777--7777--|----77-7-7-7|------------------------|
C|-------------|----------------|------------|------------------------|
G|-------------|----------------|------------|------------------------|
C|-------------|----------------|------------|------------------------|
pm     ........     ....  ....       ........ ........ . . . .

Chorus

Guitar 1
D|--------|--------|--------|--------|
A|--------|--------|--------|--------|
F|--------|--------|--------|--------|
C|7-7533-3|3-3532-2|7-7533-3|3-3532-2|x2
G|5-5301-1|3-3532-2|5-5301-1|3-3532-2|
C|--------|3-3532-2|--------|3-3532-2|

Guitar 2 (on second repeat of Guitar 1)
D|-----------------------|--------------------------------|
A|-----------------------|--------------------------------|
F|77777771010101010101010|14141414141414141212121212121212|
C|xxxxxxx x x x x x x x x| x x x x x x x x x x x x x x x x|
G|5555555 8 8 8 8 8 8 8 8|12121212121212121010101010101010|
C|-----------------------|--------------------------------|
(continued)
D|-----------------|-----------------|
A|-----------------|-----------------|
F|7-7-79109-9-91012|10-10-10121414-|
C|x-x-xx xx-x-x x x| x- x- x x x x---|
G|5-5-57 87-7-7 810| 8- 8- 8101212---|
C|-----------------|-----------------|

Bridge
[ Tab from: https://www.guitartabs.cc/tabs/e/escape_the_fate/10_miles_wide_tab.html ]
Guitar 1
D|-------------------------------|-----------------------------|
A|-------------------------------|-----------------------------|
F|-------------------------------|-----------------------------|
C|-------------------------------|-----------------------------|
G|5~8~10*~12~10~8~5~8~10*~12~10~8|5~8~10*~12~10~8~5~7~4/8~-7~5~|
C|-------------------------------|-----------------------------|
(continued)
D|-------------------------------|------------------------------|
A|-------------------------------|------------------------------|
F|-------------------------------|------------------------------|
C|-------------------------------|------------------------------|
G|5~8~10*~12~10~8~5~8~10*~12~10~8|5~8~10*~12~10~8~5~7~4/12~10~8~|
C|-------------------------------|------------------------------|
(continued)(Guitar 2 enters here)
D|-------------------------------|--------------------------------|
A|-------------------------------|--------------------------------|
F|-------------------------------|--------------------------------|
C|-------------------------------|--------------------------------|
G|5~8~10*~12~10~8~5~8~10*~12~10~8|5~8~10*~12~10~8~4444444444444444|
C|-------------------------------|--------------------------------|

Guitar 2
D|---------------|----------------------------------------|
A|---------------|----------------------------------------|
F|12bb14~-12bb14~|12bb14~-14141414141414141414141414141414|
C|---------------|----------------------------------------|
G|---------------|----------------------------------------|
C|---------------|----------------------------------------|

Riff

Guitar 1
D|----------------------|----------------------|
A|----------------------|----------------------|
F|----------------------|----------------------|
C|----------------------|----------------------|
G|5*p0----8*p0---4-5h7p5|5*p0----8*p0---4-5h7p5|
C|--0000--3-0-------|--0000--3-0-------|
pm    ....                   ....

Guitar 2
D|----------------------|----------------------|
A|15~/------------------|1515~/----------------|
F|----------------------|----------------//----|
C|----------------------|----------------//----|
G|----------------------|----------------------|
C|----------------------|--------3-0-------|

Chorus

Guitar 1
D|--------|--------|--------|--------|
A|--------|--------|--------|--------|
F|--------|--------|--------|--------|
C|7-7533-3|3-3532-2|7-7533-3|3-3532-2|
G|5-5301-1|3-3532-2|5-5301-1|3-3532-2|
C|--------|3-3532-2|--------|3-3532-2|
(continued)(Guitar 2 enters here)
D|--------|--------|--------|--------|
A|--------|--------|--------|--------|
F|--------|--------|--------|--------|
C|7-777-7|3-333--3|3-333-3|2-222-2|
G|5-555-5|1-111-1|3-333-3|2-222-2|
C|--------|--------|3-333-3|2-222-2|
(continued)
D|--------|--------|--------|--------------|
A|--------|--------|--------|--------------|
F|--------|--------|--------|--------------|
C|7-777-7|3-333--3|3-333-3|777777-777777|
G|5-555-5|1-111-1|3-333-3|777777-777777|
C|--------|--------|3-333-3|777777-777777|
pm                           ......  ......

Guitar 2
D|-----------------------|--------------------------------|
A|-----------------------|--------------------------------|
F|77777771010101010101010|14141414141414141212121212121212|
C|xxxxxxx x x x x x x x x| x x x x x x x x x x x x x x x x|
G|5555555 8 8 8 8 8 8 8 8|12121212121212121010101010101010|
C|-----------------------|--------------------------------|
(continued)
D|-----------------|-----------------|------------------------------|
A|-----------------|-----------------|------------------------------|
F|7-7-79109-9-91012|10-10-10121414-|14141414141414--14141414141414|
C|x-x-xx xx-x-x x x| x- x- x x x x---| x x x x x x x-- x x x x x x x|
G|5-5-57 87-7-7 810| 8- 8- 8101212---|12121212121212--12121212121212|
C|-----------------|-----------------|------------------------------|
pm                                     . . . . . . .   . . . . . . .

Outro

Guitar 1
D|----------------------|----------------------|
A|----------------------|----------------------|
F|----------------------|----------------------|
C|----------------------|----------------------|
G|5*p0----8*p0---4-5h7p5|5*p0----8*p0---4-5h7p5|
C|--0000--3-0-------|--0000--3-0-------|
pm    ....                   ....
(continued)
D|----------------------|----------------------|
A|----------------------|----------------------|
F|----------------------|----------------------|
C|----------------------|----------------------|
G|5*p0----8*p0---4-5h7p5|5*p0----8*p0----------|
C|--0000--3-0-------|--0000--3-0-------|
pm    ....                   ....