Eric Bibb - Pockets Chords & Tabs

 

Pockets Chords & Tabs

Eric Bibb Chords & Tabs

Version: 1 Type: Tab

Pockets Tab

   
POCKETS - Eric BIBB - Spirit I Am

By Moazossi

Capo 3

   [.....Intro........] X4
e|---------------------------------------------------------------------|
B|-----3--1--0-----------------0-------0-------------------------------|
G|--------------0----------------2-0----0------------------------------|
D|----0------------0-2óX3-----1-------2---2----------------------------|
A|---------------2----------2------------------------------------------|
E|--3------------------------------0-----------------------------------|

|----------------------------------------------------------------------|
|-----3--1--0----------------0---------3--------1-0-------0-----1------|
|--------------0----------0-----0--------0---2---------0/2--0-----0----|
|----0------------0-2----2--2--2------0---0----0-----0--------2----2---|
|---------------2-----0-------------------------------------3----------|
|--3--------------------------------3--------2------3------------------|


|----------------------------|
|-----3---------1-0----------|
|-------0---2----------------|
|----0---0----0--------------|
|----------------------------|
|--3--------2----------------|

Break

|--------------0--------------------------------------|
|--3-------3-----------3---1--------1----0-------0----|
|------5-----------5------------0------------0--------|
|----4------4----4-------4----2-------2----0-------0--|
|--5-----5-----5-----5-----3------3-------------------|
|----------------------------------------3-----3------|

|--------------0--------------------------------------|
|--2-------2-----------2----3--3--5--6--7-------------|
|------0-----------0----------------------------------|
|----2-------2---2-------2--4--4--5--6--7-------------|
|--0-----0-----0-----0--------------------------------|
|-----------------------------------------------------|

[ Tab from: https://www.guitartabs.cc/tabs/e/eric_bibb/pockets_tab.html ]
Intro X 4
G
I got a pocket for my keys
A pocket for my cash
One for my ticket
                   B7        Em
In case I got to leave town fast
G
My favourite pocket
                     A7
You know the one I thinking of
        G            D7             G         C
Is the pocket in my heart for your love
     G            D7             G
The pocket in my heart for your love

X2
I got a pocket for my pin
One for my book
A pocket for my glasses
When I got to get a better look

But my favourite pocket
Said it from the start
Is the pocket for you love inside my heart
The pocket for you love inside my heart

X1

D7 (3th fret)
Before I met you baby
         C              G
I had a pocket full of kiss
A7
Last time I looked
riff
There wasnít any there

I got a pocket for my comb
A pocket for my candied bar
One for my passport
When Iím travelling that far

But my favourite pocket
Fits just like a glove
Is the pocket in my heart for your love
The pocket in my heart for your love

Break

X1

Since I met you baby
Iíve been having so much fun
Iím writing love songs
And this oneís almost done

I got a pocket for my watch
A pocket for my silver flask
One for my wallet
On wich I found a photograph

But my favourite pocket
Said it from the start
Is the pocket for you love inside my heart
The pocket for you love inside my heart

X1

I got a pocket for my cold france
A pocket for my handkerchief
Before I gave it up
I had a pocket for my splint

My favourite pocket
You know the one I thinking of
Is the pocket in my heart for your love
The pocket in my heart for your love

Iím talking ofÖ    love pocket


Not sure of the lyrics, sorry about that, but its sounds quite right.