Emerson Lake And Palmer - Knife Edge Chords & Tabs

 

Knife Edge Chords & Tabs

Emerson Lake And Palmer Chords & Tabs

Version: 1 Type: Bass Tab

Knife Edge Bass Tab

Emerson Lake and Palmer
Knife Edge
Standard Bass tuning
tabbed by jjhand

Some unregistered person requested this TAB. This is one really unusual 
song, but it wasn't too hard to figure out. Please rate my tab, and others 
will check it out too.

Main Riff
G|-----------------|-----------------------|
D|-----------------|-----------------------|
A|--5-----3----0---|-30-3--0--30-3--0----|
E|-----------------|----------------------|

After Verse
G|-----------------|-----------------|-----------------|-----------------|
D|-----------------|-----------------|-----------------|-----------------|
A|--0--------------|--0--------------|--0--------------|--0--------------|
E|----------3------|--------3-------|----------3------|--------3-------|

G|-----------------|-----------------|-----------------|-----------------|
D|-----------------|-----------------|-----------------|-----------------|
A|--0--------------|--0--------------|--0--------------|--0----------0---|
E|----------3------|--------3-------|----------3------|--------3-------|

G|-----------------|----7----5-----7----5--|
D|-7-6-5-4--3-2----|-----------------------|
A|-----------------|-5----3-----5----3-----|
E|-----------------|----------------------|

G|-----------------|----7----5-----7----5--|
D|-7-6-5-4--3-2----|-----------------------|
A|-----------------|-5----3-----5----3-----|
E|-----------------|----------------------|
[ Tab from: https://www.guitartabs.cc/tabs/e/emerson_lake_and_palmer/knife_edge_btab.html ]
G|--------------|---------------|---------------|-------7-----|-------7-----|
D|--------------|---------------|---------------|--0------7---|--0------7---|
A|-0------------|--0------------|--0------------|-----------8-|-----------8-|
E|--------3-----|--------3-----|---------1-----|-------fast-|-------fast-|

Lyrics start again
G|-----------------|-----------------|-----------------|-----------------|
D|-----------------|-----------------|-----------------|-----------------|
A|--3-------1------|--3-------1------|--3-------1------|--3-------1---3--|
E|-----------------|----------------|-----------------|----------------|

G|--------------------|--------------------|--------------------|
D|--7----5----7----5--|--7----5----7----5--|--7----5----7----5--|
A|--------------------|--------------------|--------------------|
E|--------------------|--------------------|--------------------|

G|--------------------|--------------------|--------------------|
D|--7----5----7----5--|--5-----------------|--7----5----7----5--|
A|--------------------|-------3---5--------|--------------------|
E|--------------------|----------------3---|--------------------|

play this 2x
G|-----------------|-----------------------|
D|-----------------|-----------------------|
A|--5-----3----0---|-30-3--0--30-3--0----| rest
E|-----------------|----------------------| 

play this 3x
G|-----------------|
D|-----------------|
A|--5-----3----0---| rest
E|-----------------|

continue to keyboard solo:
play once:                 repeat this bar with different rhythms: 
G|----------------2---2-|  ----7-----5----2---2-|
D|----------------------|  ---------------------|
A|--/5-----3----0---0---|  --5-----3----0---0---| 
E|----------------------|  ---------------------|

After solo play: 
G|-----------------------|
D|-----------------------|
A|-30-3--0--30-3--0----| some rests are inserted
E|-----------------------|