El Caco - Ill Play Chords & Tabs

 

Ill Play Chords & Tabs

El Caco Chords & Tabs

Version: 1 Type: Bass Tab

Ill Play Bass Tab

   
I’LL PLAY
Artist – El Caco
Album – Viva
Bassist – Řyvind Osa

Standard tuning: E A D G

Verse
|--------------------------------------------|
|--------------------------------------------|
|---2h4-4-4-4-4-4-4-4-4-4-4-4-4-4-4----------| x3
|--------------------------------------------|

Then:
|--------------------------------------------|
|--------------------------------------------|
|---2h4-4-4-4-4-4-4-7p4-4-7p4-4-7p4----------| 3rd time, repeat
|--------------------------------------------| this…

Repeat whole thing 3 times


Pre-Chorus
|--------------------------------------------|
|--------------------------------------------|
|-----------2-------4------------------------| x2
|---0----------------------------------------|

Chorus:
|--------------------------------------------|
|--------------------------------------------|
|---2-------4---------------7-------2------4-| x2
|-------------------0------------------------|

Verse
|--------------------------------------------|
|--------------------------------------------|
|---2h4-4-4-4-4-4-4-4-4-4-4-4-4-4-4----------| x3
|--------------------------------------------|

Then:
|--------------------------------------------|
|--------------------------------------------|
|---2h4-4-4-4-4-4-4-7p4-4-7p4-4-7p4----------| 3rd time, repeat
|--------------------------------------------| this…

[ Tab from: https://www.guitartabs.cc/tabs/e/el_caco/ill_play_btab.html ]
Pre-Chorus
|--------------------------------------------|
|--------------------------------------------|
|-----------2-------4------------------------| x2
|---0----------------------------------------|

Chorus:
|--------------------------------------------|
|--------------------------------------------|
|---2-------4---------------7-------2------4-| x2
|-------------------0------------------------|


Bridge:
|-------------2----3-------------------------|
|--------------------------11----------------|
|---6h7-4-4-------------/10------------------| x3
|--------------------------------------------|

|--------------------------------------------|
|--------------------------------------------|
|---6h7-4-4-4--------------------------------|
|--------------------------------------------|

|-------------2----3-------------------------|
|--------------------------11----------------|
|---6h7-4-4-------------/10------------------| x8
|--------------------------------------------|

Pre-Chorus
|--------------------------------------------|
|--------------------------------------------|
|-----------2-------4------------------------| x2
|---0----------------------------------------|

Chorus:
|--------------------------------------------|
|--------------------------------------------|
|---2-------4---------------7-------2------4-| x2
|-------------------0------------------------|

Outro:
|-------------2----3-------------------------|
|--------------------------11----------------|
|---6h7-4-4-------------/10------------------| x3
|--------------------------------------------|


|--------------------------------------------|
|--------------------------------------------|
|---6h7-4-4-4--------------------------------|
|--------------------------------------------|


www.elcaco.com