Eight Legs - Over The Edge Chords & Tabs

 

Over The Edge Chords & Tabs

Eight Legs Chords & Tabs

Version: 1 Type: Bass Tab

Over The Edge Bass Tab

   
----------------------------------------------------------------------------
                            Over the Edge  Eight Legs
----------------------------------------------------------------------------

http://www.eightlegs.co.uk/
http://www.myspace.com/eightlegs

Tabbed By : Waswares 

Tuning: Standard

Intro:

G|-----------------------------------------------------------------|
D|-----------------------------------------------------------------|
A|------------5-5-------------5-5-----4-4-----5-5-------------5-5--|
E|-5-5-4-4-2-2----5-5-4-4-2-2-----5-5-----2-2-----5-5-4-4-2-2------|

Verse:

G|-----------------------------------------------------------------|
D|-----------------------------------------------------------------|
A|------------5-5-------------5-5-----4-4-----5-5-------------5-5--|
E|-5-5-4-4-2-2----5-5-4-4-2-2-----5-5-----2-2-----5-5-4-4-2-2------|

Chorus:

G|-------------------------------|
D|-------------------------------|
A|--------4-4444-5-5555-2-2-2-2--|
E|-5-5555------------------------|

Verse:
[ Tab from: https://www.guitartabs.cc/tabs/e/eight_legs/over_the_edge_btab.html ]
G|-----------------------------------------------------------------|
D|-----------------------------------------------------------------|
A|------------5-5-------------5-5-----4-4-----5-5-------------5-5--|
E|-5-5-4-4-2-2----5-5-4-4-2-2-----5-5-----2-2-----5-5-4-4-2-2------|


Chorus:

G|-------------------------------|
D|-------------------------------|
A|--------4-4444-5-5555-2-2-2-2--|
E|-5-5555------------------------|

Bridge:

G|------------------------------------------------|
D|--------------------7-777-4-4-4-5-555-2-222222--|
A|-5555555555555555~~~----------------------------|
E|------------------------------------------------|

Verse:

G|--------------------------------------------------------------------|
D|--------------------------------------------------------------------|
A|------------5-5-------------5-5-----4-4-----5-5-------------5-5-----|
E|-5-5-4-4-2-2----5-5-4-4-2-2-----5-5-----2-2-----5-5-4-4-2-2------5--|


| /  slide up
| \  slide down
| h  hammer-on
| p  pull-off
| ~  vibrato
| +  harmonic
| x  Mute note
============================================================================