Effinboiche - All We Know Chords & Tabs

 

All We Know Chords & Tabs

Effinboiche Chords & Tabs

Version: 1 Type: Tab

All We Know Tab

Intro: X2

|---------------------------------------------------------------------------|
|---------------------------------------------------------------------------|
|----------------------------------------------55-555-555-5-55-55-555-555-5-|
|-2-0-2---7-7777777---2-0-2---5-7777777--2-0-2-55-555-555-5-55-55-555-555-5-|
|-2-0-2---7-7777777---2-0-2---5-7777777--2-0-2-33-333-333-3-33-33-333-333-3-|
|-2-0-2---7-7777777---2-0-2---5-7777777--2-0-2------------------------------|

Pre-Chorus: X1

|---------------------------------------------------------------------------|
|---------------------------------------------------------------------------|
|----------------------------------------------55-555-555-5-55-55-555-555-5-|
|-2-0-2---77777777777-99999-5555555555---2-0-2-55-555-555-5-55-55-555-555-5-|
|-2-0-2---77777777777-99999-5555555555---2-0-2-33-333-333-3-33-33-333-333-3-|
|-2-0-2---77777777777-99999-5555555555---2-0-2------------------------------|
          ........... ..... ..........

Chorus: X2  then Ending
                                                            Ending
|-------------------------------------------------|------------------------|
|-------------------------------------------------|------------------------|
|------------------555555555----------------------|------------------------|
|-0-222222222222---555555555----0--7-777-0--5-555-|---22222222222222222----|
|-0-222222222222---333333333----0--7-777-0--5-555-|---22222222222222222----|
|-0-222222222222----------------0--7-777-0--5-555-|---22222222222222222----|
                                                      .................
Chorus Guitar 2: 
Note: listen for timing. Those are 10s 11s and 12s

|-----------------------------------------------------------------------|
|-----------------------------------------------------------------------|
|---999999999999999999-1111111111111111-1212121212121212121212121212----|
|---xxxxxxxxxxxxxxxxxx-xxxxxxxxxxxxxxxx--x-x-x-x-x-x-x-x-x-x-x-x-x-x----|
|---777777777777777777-9999999999999999-1010101010101010101010101010----|
|-----------------------------------------------------------------------|

[ Tab from: https://www.guitartabs.cc/tabs/e/effinboiche/all_we_know_tab.html ]
REPEAT INTRO VERSE,REF AND CHORUS

Verse: X4  Then Ending

|------5---------7---------3-----------|---------------|
|------5---------7---------3-----------|---------------|
|------7---------9---------5-----------|---------------|
|------7---------9---------5-----------|--0000-2222----|
|------5---------7---------3-----------|--0000-2222----|
|--------------------------------------|--0000-2222----|
                                          .... ....

Bridge: X1                   
|------------------------------------------------------------|
|-------------------------------------5*---------------------|
|--5-5----5*---------------------5-5-------------------------|
|--5-5--------0--22222-4444-555--5-5------0--22222-0000------|
|--3-3--------0--22222-4444-555--3-3------0--22222-0000------|
|-------------0--22222-4444-555-----------0--22222-0000------|






Solo: 2:35

|---------------------------------------------------------|
|---------------------------------------------------------|
|--16-16-16-16-14-14-14-14-19-19-19-19-19-21-21-21-21-21--|
|---x--x--x--x--x--x--x--x--x--x--x--x--x--x--x--x--x--x--| Continued
|--14-14-14-14-12-12-12-12-17-17-17-17-17-19-19-19-19-19--|
|---------------------------------------------------------|

|----------------------------19-19-19-19---------------------------|
|-19-19-19-19-19-20-20-20-20--------------17-17-17-17--20-20-20-20-|
|--x--x--x--x--x--x--x--x--x---------------------------------------|
|-16-16-16-16-16-17-17-17-17---------------------------------------| continued
|------------------------------------------------------------------|
|------------------------------------------------------------------|

|---17-17-17-17------------------------------------------------------------|
|---------------15-15-15-15-15-17-17-17-17-19-19-19-19-20-20-20-20-2012~~-|
|--------------------------------------------------------------------------|
|--------------------------------------------------------------------------|
|--------------------------------------------------------------------------|
|--------------------------------------------------------------------------|

End 

|-----|
|-----|
|-----|
|--2--|
|--2--|
|--2--|