Editors - Munich Chords & Tabs

 

Munich Chords & Tabs

Editors Chords & Tabs

Version: 2 Type: Bass Tab

Munich Bass Tab

   
-------------------------------------------------------------------------------
			            Editors - Munich
-------------------------------------------------------------------------------

Tabbed By : ben shaw
e-mail: B.W.Shaw@ncl
you need to add on: .ac.uk

Tuning: E A D G

Intro: No bass till 0.13 then
G|---------------------------------------------------------------------|
D|---------------------------------------------------------------------|
A|-3-3-3-3-3-3-3-3-1---------------------------------------------------| x 2
E|-------------------3-3-3-3-3-3-3-3/6-6-6-6-6-6-6-6/8\3-3-3-3-3-3-3-3-|
                                            (the 6/8\is a v.small fill)
Verse

G|---------------------------------------------------------------------|
D|---------------------------------------------------------------------|
A|-3-3-3-3-3-3-3-3-1---------------------------------------------------| x 4
E|-------------------3-3-3-3-3-3-3-3/6-6-6-6-6-6-6-6/8\3-3-3-3-3-3-3-3-|
                                            
Chorus 
People are fragile things...
G|-----------------|-----------------|-------------------------|----------------|
D|-----------------|-----------------|-------------------------|----------------|
A|-3-3-3-3-3-3-3-3-|-6-6-6-6-6-6-6-6-|-10-10-10-10-10-10-10-10-|-13-13-13-6-6-6-|
E|-----------------|-----------------|-------------------------|----------------|

...be careful what you put them through
G|-----------------|-----------------|-------------------------|-12-12-12----------|
D|-----------------|-----------------|-------------------------|----------13-13-13-|
A|-3-3-3-3-3-3-3-3-|-6-6-6-6-6-6-6-6-|-10-10-10-10-10-10-10-10-|-------------------|
E|-----------------|-----------------|-------------------------|-------------------|
[ Tab from: https://www.guitartabs.cc/tabs/e/editors/munich_btab_ver_2.html ]
People are fragile things...
G|-----------------|-----------------|-------------------------|----------------|
D|-----------------|-----------------|-------------------------|----------------|
A|-3-3-3-3-3-3-3-3-|-6-6-6-6-6-6-6-6-|-10-10-10-10-10-10-10-10-|-13-13-13-6-6-6-|
E|-----------------|-----------------|-------------------------|----------------|

...you'll speak when you're spoken to
G|-----------------|-----------------|-------------------------|-12-12-12----------|
D|-----------------|-----------------|-------------------------|----------13-13-13\|
A|-3-3-3-3-3-3-3-3-|-6-6-6-6-6-6-6-6-|-10-10-10-10-10-10-10-10-|-------------------|
E|-----------------|-----------------|-------------------------|-------------------|

Instrumental
G|---------------------------------------------------------------------|
D|---------------------------------------------------------------------|
A|-3-3-3-3-3-3-3-3-1---------------------------------------------------| x 2
E|-------------------3-3-3-3-3-3-3-3/6-6-6-6-6-6-6-6/8\3-3-3-3-3-3-3-3-|

Verse

Chorus

Bridge
G|-----------------|-----------------|-----------------|-----------------|
D|-----------------|-----------------|-----------------|-----------------|
A|-----------------|-----------------|-----------------|-----------------|
E|-3-3-3-3-3-3-3-3-|-3-3-3-3-3-3-3-3-|-6-6-6-6-6-6-6-6-|-6-6-6-6-6-6-6-6-|

G|-----------------|-----------------|-----------------|-------------------|
D|-----------------|-----------------|-----------------|-------------------|
A|-----------------|-----------------|-----------------|-------------------|
E|-3-3-3-3-3-3-3-3-|-3-3-3-3-3-3-3-3-|-6-6-6-6-6-6-6-6-|-6-6-6-6-6-6/11-11-|

Chorus x 2

End on:
G|------|
D|------|
A|-10~--|
E|------|

This is the first tab Iíve submitted so if Iíve made any cock-ups or if youíve
got any suggestions then feel free to email me

Enjoy

| /  slide up
| \  slide down
| ~  vibrato (hold)
===============================================================================