Editors - Blood Chords & Tabs

 

Blood Chords & Tabs

Editors Chords & Tabs

Version: 2 Type: Bass Tab

Blood Bass Tab

   
Editors  Blood
Bassist: Russell Leetch

Intro: Play from the start
G|------11-11-9-9\-6-6-9-9-6-6/-14-14-13-13-|
D|--9-9-------------------------------------|
A|------------------------------------------|
E|------------------------------------------| X4

Verse
G|-----------------------------------|
D|-----------------------------------|
A|--9-9-9-9\-4-4-7-4\-2-2-2-2-2-2-2-2|
E|-----------------------------------| X12

Pre Chorus
G|--------------|
D|--------------|
A|-9-X16-11-X16-|
E|--------------|X1

Chorus
G|---------------------------------------------------------------------------|
D|---------------------------------------------------------------------------|
A|--9-9-9-9-9-9-9-9\-4-4-4-4-4-4-4-4-7-7-7-7-7-7-7-7/-12-12-12-12-11-11-11-11|
E|---------------------------------------------------------------------------|

G|----------------------------------------------------------------------|
D|----------------------------------------------------------------------|
A|--9-9-9-9-9-9-9-9\-4-4-4-4-4-4-4-4-7-7-7-7-7-7-7-7-7-7-7-7-7-7-4-4-4-4|
E|----------------------------------------------------------------------| X2


Verse
G|-----------------------------------|
D|-----------------------------------|
A|--9-9-9-9\-4-4-7-4\-2-2-2-2-2-2-2-2|
E|-----------------------------------| X8

Pre Chorus
G|--------------|
D|--------------|
A|-9-X16-11-X16-|
E|--------------|X1
[ Tab from: https://www.guitartabs.cc/tabs/e/editors/blood_btab_ver_2.html ]
Chorus
G|---------------------------------------------------------------------------|
D|---------------------------------------------------------------------------|
A|--9-9-9-9-9-9-9-9\-4-4-4-4-4-4-4-4-7-7-7-7-7-7-7-7/-12-12-12-12-11-11-11-11|
E|---------------------------------------------------------------------------|

G|----------------------------------------------------------------------|
D|----------------------------------------------------------------------|
A|--9-9-9-9-9-9-9-9\-4-4-4-4-4-4-4-4-7-7-7-7-7-7-7-7-7-7-7-7-7-7-4-4-4-4|
E|----------------------------------------------------------------------| X2

Bridge
G|--------------------------------------------------------------------|
D|--------------------------------------------------------------------|
A|--9-9-9-9-9-9-9-9-9-9-9-9-9-9-9-9-9-9-9-9-9-9-9-9-9-9-9-9-9-9-11-11-|
E|--------------------------------------------------------------------| X2

Chorus
G|---------------------------------------------------------------------------|
D|---------------------------------------------------------------------------|
A|--9-9-9-9-9-9-9-9\-4-4-4-4-4-4-4-4-7-7-7-7-7-7-7-7/-12-12-12-12-11-11-11-11|
E|---------------------------------------------------------------------------|

G|----------------------------------------------------------------------|
D|----------------------------------------------------------------------|
A|--9-9-9-9-9-9-9-9\-4-4-4-4-4-4-4-4-7-7-7-7-7-7-7-7-7-7-7-7-7-7-4-4-4-4|
E|----------------------------------------------------------------------| X3

Outro
G|------11-11-9-9\-6-6-9-9-6-6/-14-14-13-13\-|
D|--9-9--------------------------------------|
A|-------------------------------------------|
E|-------------------------------------------| X4

Tabbed by RandomHeroX (Jack Layzell)
E-mail randomherox@hotmail.co.uk for any suggestions :)