Eddie Money - Take Me Home Tonight Chords & Tabs

 

Take Me Home Tonight Chords & Tabs

Eddie Money Chords & Tabs

Version: 1 Type: Bass Tab

Take Me Home Tonight Bass Tab

SONG:			TAKE ME HOME TONIGHT
ARTIST:		EDDIE MONEY
ALBUM:		CANíT HOLD BACK
TABBED BY:		DIERBERGSBAGGER

Basic outline of the song.  You can play along 
pretty well, but some of the jumps are just improv.

INTRO
G|-----------------------|
D|-----------------------|
A|-----------------------|
E|-66-66-66-66-----------|

VERSE
G|-----------------------|
D|-----------------------|
A|-----------------------|
E|-6~-2~-2~-4~-----------|

PRE-CHORUS
G|-----------------------|
D|-----------------------|
A|-----------------------|
E|-2-22-4-44-------------|
[ Tab from: https://www.guitartabs.cc/tabs/e/eddie_money/take_me_home_tonight_btab.html ]
CHORUS
G|-----------------------|
D|-----------------------|
A|-4~--------------------|
E|----4~-6~-2~-----------|

PRE-VERSE
G|-----------------------|
D|-----------------------|
A|-----------------------|
E|-2-22-2-22-------------|

SOLO PT 1
G|-----------------------|
D|-----------------------|
A|-----------------------|
E|-6-66-6-66-------------|

SOLO PT 2
G|-----------------------|
D|-----------------------|
A|-----------------------|
E|-4-2-1-0-2-------------|

INTRO			X2
VERSE			X10
PRE-CHORUS		X3
CHORUS		X3
PRE-VERSE		X1
VERSE			X1
PRE-CHORUS		X3
CHORUS		X3
PRE-VERSE		X1
VERSE			X1
SOLO PT 1		X2
SOLO PT 2		X1
SOLO PT 1		X1
CHORUS		X1
PRE-VERSE		X1
CHORUS		X3
PRE-VERSE		X1
CHORUS TIL FADE OUT