Echo And The Bunnymen - Lips Like Sugar Chords & Tabs

 

Lips Like Sugar Chords & Tabs

Echo And The Bunnymen Chords & Tabs

Version: 1 Type: Bass Tab

Lips Like Sugar Bass Tab

   
-------------------------------------------------------------------------------
			     Lips Like Sugar - Echo And The Bunnymen
-------------------------------------------------------------------------------

Tabbed By : Moreno Elizondo josť Rodrigo (rocko872)
e-mail: rocko_872@hotmail.com 

Tuning: G D A E

 Main Riff:

G|---------------------------|\
D|---------------------------|| Repeat it
A|---------------------------|| several times
E|-0-3-5--7-7--7-7--5--7-7-7-|/

 Pre-Chorus:

G|------------------------------------------|
D|------------------7-----------------7-----|
A|------------5-7-9---9-7-------5-7-9---9-7-|
E|-0-3-5--7-7---------------7-7-------------|
[ Tab from: https://www.guitartabs.cc/tabs/e/echo_and_the_bunnymen/lips_like_sugar_btab.html ]
G|------------------------------------|
D|-----------7-----------------7------|
A|-----5-7-9---9-7-------5-7-9---9-7--|
E|-7-7---------------7-7--------------|

 Chorus:

G|--------------------------------------------------------|\
D|--------------------------------------------------------|| repeat it 
A|------7------------7---7-----------9------------9---9---|| several times
E|-5-5----5---5-5-5----5---5----7-7----7---7-7-7----7---7-|/

 Break:

G|----------9---9---9--------------|\
D|---------------------------------||
A|------7-7---7---7--7/12-12-14-14-||
E|-5-------------------------------||
                                    > Repeat it several times.
G|---------------------------------||
D|-----9---9---9-------------------||
A|---------------------------------||
E|-7-7---7---7---7/12-12-14-14-----|/



| /  slide up
| \  slide down
| h  hammer-on
| p  pull-off
| ~  vibrato
| +  harmonic
| x  Mute note
===============================================================================