Echo And The Bunnymen - Cutter Chords & Tabs

 

Cutter Chords & Tabs

Echo And The Bunnymen Chords & Tabs

Version: 1 Type: Bass Tab

Cutter Bass Tab

   
-------------------------------------------------------------------------------
			     The Cutter - Echo And The Bunnymen
-------------------------------------------------------------------------------

Tabbed By : Moreno Elizondo josť Rodrigo (rocko872)
e-mail: rocko_872@hotmail.com 

Tuning: G D A E

 Main riff:

G|-------5---------7----|
D|----7---------7-------|
A|-5---------5--------5-|
E|----------------------|

 Chorus 1 & 3:

G|--------------------------------------------|
D|--------------------------------------------|
A|---3-5------3-5------3-5------3-5------3-5--|
E|-5------5-5------5-5------5-5------5-5------|

G|--------------------------------------------|
D|--------------------------5-5-5--7--5-------|
A|-----3-5------3-5------3--------------------|
E|-5-5------5-5------5-5----------------------|

Chorus 2 & 4:

G|--------------------------------------------|
D|--------------------------------------------|
A|---3-5------3-5------3-5------3-5------3-5--|
E|-5------5-5------5-5------5-5------5-5------|
[ Tab from: https://www.guitartabs.cc/tabs/e/echo_and_the_bunnymen/cutter_btab.html ]
G|--------------------------------------------|
D|--------------------------------------------|
A|-----3-5------3-5------3--------------------|
E|-5-5------5-5------5-5-----3-3-3--5--3------|

 Break:

G|-----------------------------------------------------|
D|-----------------------------------------------------|
A|-5-5-5-5--5-5-5-5--5-5-5-5--5-5-5-5------------------|
E|-----------------------------------------------------|

G|-----------------------------------------------------|
D|-----------------------------------------------------|
A|-10-10-10-10--10-10-10-10--10-10-10-10--10-10-10-10--|
E|-----------------------------------------------------|

G|-----------------------------------------------------|
D|-----------------------------------------------------|
A|-12-12-12-12--12-12-12-12--12-12-12-12--12-12-12-12--|
E|-----------------------------------------------------|

Song ending:

G|-------|
D|-------|
A|---3-5-|
E|-5-----|

Tht's the whole song, enjoy it!

| /  slide up
| \  slide down
| h  hammer-on
| p  pull-off
| ~  vibrato
| +  harmonic
| x  Mute note
===============================================================================