Echo And The Bunnymen - Crocodiles Chords & Tabs

 

Crocodiles Chords & Tabs

Echo And The Bunnymen Chords & Tabs

Version: 1 Type: Bass Tab

Crocodiles Bass Tab

   
-------------------------------------------------------------------------------
			     Crocodiles - Echo And The Bunnymen
-------------------------------------------------------------------------------

Tabbed By : Moreno Elizondo josť Rodrigo (rocko872)
e-mail: rocko_872@hotmail.com 

Tuning: G D A E


 Main Riff:

G|-------------------|
D|-------------------|
A|-0-0--3-0------5-7-|
E|----------3-0------|

 Verse ending:

G|-----------------------------------------------------------------|
D|-----------------------------------------------------------------|
A|-----------------------------------------------------------------|
E|-3-3-3--5--5-5-5---3-3-3--5--5-5-5---3-3-3--5--5-5-5---3--3--3--3|
[ Tab from: https://www.guitartabs.cc/tabs/e/echo_and_the_bunnymen/crocodiles_btab.html ]
 Break:
G|---------------------------------------------------------------------|
D|---------------------------------------------------------------------|
A|---------------------------------------------------------------------|
E|-0--0-0---3-2-3---0--0-0---3-2-3---0--0-0---3-2-3---0--0-0---3-2-3/5-|

G|---------------------------------------------------------------------|
D|---------------------------------------------------------------------|
A|---------------------------------------------------------------------|
E|--5-5--5-5-5-5---5-5-5---5-5-5-5---5-5-5--5-5-5-5---5-5-5--5-5-5-5---|

G|---------------------------------------------------------------------|
D|---------------------------------------------------------------------|
A|---------------------------------------------------------------------|
E|--5-5-5--5-5-5-5---5-5-5--5-5-5-5---5-5-5-5-5-5----------------------|

It's is an easy song, you just have to listen 
and figure out when to play each part


| /  slide up
| \  slide down
| h  hammer-on
| p  pull-off
| ~  vibrato
| +  harmonic
| x  Mute note
===============================================================================