Earth Wind And Fire - Fantasy Chords & Tabs

 

Fantasy Chords & Tabs

Earth Wind And Fire Chords & Tabs

Version: 3 Type: Bass Tab

Fantasy Bass Tab

Fantasy  Earth Wind and Fire

Tabbed by Jm12u@hotmail.com

Tuning: standard

*There are slight variations between some of the repeated sections in the original (i 
omitted them for expedience)
It is best to listen to the original for the finer details although this is pretty accurate.

Intro:
G|-----------------------------------------------11---h13----------|
D|-----------------------------------------------------------------|
A|----7--------------10--------------------------------------------|
E|---------7----8----------5------7-------0-----------------0------|

Riff
G|------------------------------------------|
D|------------------------------------------|
A|-7---5-------------------------5----------|  X 8
E|---------7---5---h7---5---h7------5----h7-|

Verse 1+2
G|-----------------------------------------------------------------|
D|--7--------9--------10---------12----------10---------12---------|
A|-----------------------------------------------------------------|
E|-5--5-5---7--7-7---8---8-8---10---10-10---8---8-8---10---10-10---|

G|--9--------9-----------------------------------------------------|
D|---------------------7--------9--------10--------12--------------|
A|-7--7-7---7--7-7-------------------------------------------------|
E|--------------------5--5-5---7--7-7---8--8-8---10--10-10---------|

G|---------------------------------------------|
D|----10--------12-----------------------------|
A|---------------------------------------------|
E|--8---8-8---10--10-10---7-7--7-7---7-7--7-7--|
[ Tab from: https://www.guitartabs.cc/tabs/e/earth_wind_and_fire/fantasy_btab_ver_3.html ]
Chorus
G|-----------------------------------------------------------------|
D|-----------------------------------------------------------------|
A|--7-7------9-9-9-9--10-10------10-10-10-10-9---7-7-----9-9-------|
E|------7-7----------------10-10---------------------7-7-----9-9---|

G|-----------------------------------------------------------------|
D|------------------7-h9-------------------------------------------|
A|-10-10------10-10------9---7-7------9-9-----10-10-10-10-10-10----|
E|-------10-10-------------------7-7------9-9----------------------|

G|----------------6------------|
D|---------------7--9----------|    Followed by Riff x 4
A|-----------------------------|    Then Verse 2
E|-5-7--7--7--7-------7--7--7--|    Then Chorus

Verse 3 (Come and see victory...)
G|--------------7-7-------------------------------------------------|
D|--------7-7---------5-5-------------------------------------------|  X2
A|--7-7--7-----5-----------2-2--2--3-3--3---------------------------|
E|-7-----------------3--------------------5-5--5--6-6--6--7-7-7-7-77|

Key Change
G|-------------------|
D|-------------------|
A|---9--7--5-----5---|
E|------------3------|

Verse 4
G|---------5-5---10-10---------7-7--8-8-------------------12-12----|
D|---5-5-----------------8-8--------------10-10---10-10------------|
A|--------3-----8-------------5----6-------------------------------|
E|--3-------------------6----------------8-------9------10---------|

G|-----------------------|
D|--10-10---8-8----------|   X 4
A|---------------6--5----|
E|-8-------6-------------|