Duran Duran - Ordinary World Chords & Tabs

 

Ordinary World Chords & Tabs

Duran Duran Chords & Tabs

Version: 1 Type: Bass Tab

Ordinary World Bass Tab

   
Ordinary World
Duran Duran
Bass tab by Cynthia@reflexx.us.

h  hammer on
p  pull off

Intro
    B          F#                 D              E
G ---------4----------------------------7-----------------------|
D -------4---4-----------4------------7---7---------------------|
A --2----------2-2-----4---4------5---------5-5--7-7-7----------|
E -----------------2---------2-2-------------------------000----|

    B          F#                 D              C
G ---------4----------------------------7-----------------------|
D -------4---4-----------4------------7---7---------------------|
A --2----------2-2-----4---4------5---------5-5--3----4h6p4-----|
E -----------------2---------2-2--------------------------------|

Verses 1 & 2

C#m               E   F#  C#m         E    F#
G --------------------------------------------------------------|
D --------6-6-----2-2-4-4------6-6------------------------------|
A --4--4-------4-----------4-4-----4----------------------------|
E -------------------------------------0-0-2-2------------------|

C#m               E   F#  C#m          E     F#
G -------------------------------------------4h6p4--------------|
D --------6-6-----2-2-4-4------6-6-----4h6p4-------6-4----------|
A --4--4-------4-----------4-4-----4-------------------4--------|
E --------------------------------------------------------------|

Prechorus
  C#m           G#        Eb       E
G --------------------------------------------------------------|
D -------6-6------------------88--------------------------------|
A --4-4------4-----6-6----6-6----6-7-77-------------------------|
E -------------4-4-----4----------------000---------------------|

Chorus
    B          F#                 D              E
G ---------4----------------------------7-----------------------|
D -------4---4-----------4------------7---7---------------------|
A --2----------2-2-----4---4------5---------5-5--7-7-7----------|
E -----------------2---------2-2-------------------------000----|

    B          F#                 D              C
G ---------4----------------------------7-----------------------|
D -------4---4-----------4------------7---7---------------------|
A --2----------2-2-----4---4------5---------5-5--3--------------|
E -----------------2---------2-2--------------------------------|
[ Tab from: https://www.guitartabs.cc/tabs/d/duran_duran/ordinary_world_btab.html ]
Break
   C#m   E    F#
G --------------------------------------------------------------|
D -------2-2--4-------------------------------------------------|
A --4-----------------------------------------------------------|
E --------------------------------------------------------------|

Chorus
    B          F#                 D              E
G ---------4----------------------------7-----------------------|
D -------4---4-----------4------------7---7---------------------|
A --2----------2-2-----4---4------5---------5-5--7-7-7----------|
E -----------------2---------2-2-------------------------000----|

    B          F#                 D              E
G ---------4----------------------------7------------9---9----99-|
D -------4---4-----------4------------7---7--------9--9-9--9-9---|
A --2----------2-2-----4---4------5---------5-5--7---------------|
E -----------------2---------2-2---------------------------------|

    B          F#                 D              E
G ---------4----------------------------7-----------------------|
D -------4---4-----------4------------7---7---------------------|
A --2----------2-2-----4---4------5---------5-5--7-7-7----------|
E -----------------2---------2-2-------------------------000----|

    B          F#                 D              C
G ---------4----------------------------7-----------------------|
D -------4---4-----------4------------7---7---------------------|
A --2----------2-2-----4---4------5---------5-5--3--------------|
E -----------------2---------2-2--------------------------------|

Verse 3
   C#m               F#
G ----------4h6p4----------4h6p4---|
D ----4h6p4-------2--4h6p4---------|
A -4-------------------------------|
E ---------------------------------| [Repeat 3 times]

Chorus
    B          F#                 D              E
G ---------4----------------------------7-----------------------|
D -------4---4-----------4------------7---7---------------------|
A --2----------2-2-----4---4------5---------5-5--7-7-7----------|
E -----------------2---------2-2-------------------------000----|

    B          F#                 D              E
G ---------4----------------------------7------------9---9----99-|
D -------4---4-----------4------------7---7--------9--9-9--9-9---|
A --2----------2-2-----4---4------5---------5-5--7---------------|
E -----------------2---------2-2---------------------------------|

[Repeat to end]

REFLEXX is a Duran Duran cover band in Houston, Texas (www.reflexx.us).