Duran Duran - I Dont Want Your Love Chords & Tabs

 

I Dont Want Your Love Chords & Tabs

Duran Duran Chords & Tabs

Version: 1 Type: Bass Tab

I Dont Want Your Love Bass Tab

   
Song: I Donít Want Your Love
Artist: Duran Duran
Tabbed by: cynthia@reflexx.us

Intro
    D
G --7-5--------------------------7-5---------------------|
D --------7-5-7--------------5---------7-5-7-------------|
A --------------55----3--5-------------------55--3--5----|
E -------------------------------------------------------| [repeat 2x]

Verse
     D	        D	     D	        D
G -------------------------------------------------------|
D -------------------------------------------------------|
A ---55-5-------5-55---------5-55-------5-55-------------|
E -------------------------------------------------------| [repeat 4x]

Chorus
    D	              C		        G                G
G --7-5---------------5-3---------------------------------------------------|
D ------7-5--7-------------5-3-5---------5-3--------------5-3---------------|
A -------------5-55--------------3-33--------5-3-5-------------5-3-5--------|
E -------------------------------------------------3-33---------------3-33--|
[repeat 2x]

Break
    D
G --7-5--------------------------7-5---------------------|
D --------7-5-7--------------5---------7-5-7-------------|
A --------------55----3--5-------------------55--3--5----|
E -------------------------------------------------------| [repeat 2x]

Verse
     D	        D	     D	        D
G -------------------------------------------------------|
D -------------------------------------------------------|
A ---55-5-------5-55---------5-55-------5-55-------------|
E -------------------------------------------------------|[repeat 2x]
[ Tab from: https://www.guitartabs.cc/tabs/d/duran_duran/i_dont_want_your_love_btab.html ]
Chorus
    D	              C		        G                G
G --7-5---------------5-3---------------------------------------------------|
D ------7-5--7-------------5-3-5---------5-3--------------5-3---------------|
A -------------5-55--------------3-33--------5-3-5-------------5-3-5--------|
E -------------------------------------------------3-33---------------3-33--|
[repeat 4x]

Break
    D
G --7-5--------------------------7-5---------------------|
D --------7-5-7--------------5---------7-5-7-------------|
A --------------55----3--5-------------------55--3--5----|
E -------------------------------------------------------|[repeat 4x]

Verse
     D	        D	     D	        D
G -------------------------------------------------------|
D -------------------------------------------------------|
A ---55-5-------5-55---------5-55-------5-55-------------|
E -------------------------------------------------------|[repeat 2x]

Break
    D	              C		        G                G
G --7-5---------------5-3---------------------------------------------------|
D ------7-5--7-------------5-3-5---------5-3--------------5-3---------------|
A -------------5-55--------------3-33--------5-3-5-------------5-3-5--------|
E -------------------------------------------------3-33---------------3-33--|
[repeat 2x]

Chorus
    D	              C		        G                G
G --7-5---------------5-3---------------------------------------------------|
D ------7-5--7-------------5-3-5---------5-3--------------5-3---------------|
A -------------5-55--------------3-33--------5-3-5-------------5-3-5--------|
E -------------------------------------------------3-33---------------3-33--|
[repeat 6x]