Douwe Bob - You Dont Have To Stay Chords & Tabs

 

You Dont Have To Stay Chords & Tabs

Douwe Bob Chords & Tabs

Version: 1 Type: Bass Tab

You Dont Have To Stay Bass Tab

   
(It may not an exact match of the original song but it fits nicely. I'm only a 
beginner on Bass so corrections are welcome ;))

Douwe Bob Posthuma - You donít have to stay
Bass ( E A D G )

Intro/Verse:
|------------------|------------------|
|------------------|------------------|
|------------------|---------------3--|
|------------------|------------------|

|------------------|------------------|------------------|------------------|
|-------5----------|-------5--------5-|-3---1---0--------|---------------0--|
|-------------3-3--|------------------|-------------3----|-1---1---3-1-3----|
|------------------|------------------|------------------|------------------|
[ Tab from: https://www.guitartabs.cc/tabs/d/douwe_bob/you_dont_have_to_stay_btab.html ]
|------------------|------------------|------------------|------------------|
|-1---1---1-0------|------------------|-------5----------|-------5--------5-|
|-------------3-1--|---1-1-1---1-1-3--|---------------3--|------------------|
|------------------|------------3-----|------------------|------------------|

|------------------|------------------|
|-3---1---0--------|------------------|
|-------------3----|-1-1-1------------|
|------------------|------------------|

Chorus:
|------------------|------------------|------------------|------------------|
|-6---6---4-6----8-|-----8---6-8-6----|-----------8-9-10-|-----10--8-10-----|
|------------------|---------------8--|-10--10--10-------|-------------8-10-|
|------------------|------------------|------------------|------------------|

|------------------|------------------|------------------|------------------|
|-6---6---4-6----8-|-----8---6-8-6----|------------------|------------------|
|------------------|---------------8--|-10-10-10-10-10---|-10-10-10-10-10---|
|------------------|------------------|------------------|------------------|

Bridge:
|------------------|------------------|
|-------3/7---5----|-------3/7---5----|
|-5----------------|-5----------------|
|------------------|------------------|