Dokken - Into The Fire Chords & Tabs

 

Into The Fire Chords & Tabs

Dokken Chords & Tabs

Version: 1 Type: Bass Tab

Into The Fire Bass Tab

Artist: Dokken
Album: Tooth and Nail
Song: Into the Fire

Tuning: E flat

Intro

F#-|-------|-------|---------| 
C#-|-------|-------|---------|
G#-|---3-5-|---3-5-|---3-5---|
D#-|-0-----|-0-----|-0-----5-|

You weave your spell, your eyes they beckon me
your lips they speak, lies and misery

Verse 1

F#-|--------------------------------|--------------------------------|
C#-|--------------------------------|--------------------------------|
G#-|-3-2-0--------------------------|-3-2-0--------------------------|
D#-|-------3-5-1-3-3-3-3-3-3-5-1-3--|-------3-5-1-3-3-3-3-3-3-5-1-3--|

I know it's wrong, but I can't turn away
the flames draw near, they're telling me to stay

Chorus

F#-|--------|-------|--------|---------|---------|---------|---------| 
C#-|--------|-------|--------|---------|---------|---------|---------|
G#-|----3-5-|---3-5-|---3-5--|---------|---------|---------|---------|
D#-|--0-----|-0-----|-0------|-0-0-0-0-|-0-0-0-0-|-0-0-0-0-|-0-0-0-0-|

Into the fire I'm falling               
into the fire I'm falling         

F#-|---------|---------|---------|---------|---------|-----FILL------|
C#-|---------|---------|---------|---------|---------|---------------|
G#-|-0-0-0-0-|-0-0-0-0-|-0-0-0-8-|-0-0-8-9-|-0-0-0-8-|-8-7-7-5-3-2-0-|
D#-|---------|---------|---------|---------|---------|---------------|

Into the fire, into the fire, 
Into the fire, I'm falling, into the fire

Verse 2

F#-|-R-------|-------Repeats-4-X-------|
C#-|---E-----|-------------------------|
G#-|-----S---|-------------------------|
D#-|-------T-|-5-1-3-5-1-3-5-1-3-5-1-3-|

Your love burns bright and yet the flames are cold
this time I fear you won't be back no more

F#-|--------------------------------|--------------------------------|
C#-|--------------------------------|--------------------------------|
G#-|-3-2-0--------------------------|-3-2-0--------------------------|
D#-|-------3-5-1-3-3-3-3-3-3-5-1-3--|-------3-5-1-3-3-3-3-3-3-5-1-3--|

When will it end, your love consumes my soul
Into the fire I'm being tempted once more


Chorus

F#-|--------|-------|--------|---------|---------|---------|---------| 
C#-|--------|-------|--------|---------|---------|---------|---------|
G#-|----3-5-|---3-5-|---3-5--|---------|---------|---------|---------|
D#-|--0-----|-0-----|-0------|-0-0-0-0-|-0-0-0-0-|-0-0-0-0-|-0-0-0-0-|

Into the fire I'm falling               
Into the fire I'm falling         
[ Tab from: https://www.guitartabs.cc/tabs/d/dokken/into_the_fire_btab.html ]
F#-|---------|---------|---------|---------|---------|-----FILL----|
C#-|---------|---------|---------|---------|---------|-------------|
G#-|-0-0-0-0-|-0-0-0-0-|-0-0-0-8-|-0-0-8-9-|-0-0-0-8-|-8-7-7-5-3-2-|
D#-|---------|---------|---------|---------|---------|-------------|

Into the fire, into the fire, 
Into the fire I'm falling, into the fire

Solo

F#-|---------|-------------|---------|---------|---------| 
C#-|---------|-------------|---------|---------|---------|
G#-|-7-8-5-7-|-7-8-3-2---0-|-7-8-----|---------|---------|
D#-|---------|---------3---|-----3-5-|-1-1-3-3-|-1-1-3-3-|

Verse 3

F#-|---------|---------|-------------|---------|---------|---------|
C#-|---------|---------|-------------|---------|---------|---------|
G#-|-0-0-0-0-|-0-0-0-0-|-0-0-3-2---0-|-0-0-0-0-|---------|---------|
D#-|---------|---------|---------3---|---------|-1-1-3-3-|-1-1-3-3-|

Take me back where I came back, don't wanna see your face no more
You broke my heart now it's not the same
I'm falling again, I'm falling again

Chorus

F#-|---------|---------|---------|---------|
C#-|---------|---------|---------|---------|
G#-|-0-0-0-0-|-0-0-0-8-|-0-0-0-0-|-0-0-8-9-|
D#-|---------|---------|---------|---------|

Into the fire, into the fire, into the fire

F#-|---------|---------|---------|---------|
C#-|---------|---------|---------|---------|
G#-|-0-0-0-0-|-0-0-0-8-|-0-0-0-0-|-0-0-8-9-|
D#-|---------|---------|---------|---------|

Into the fire, into the fire, Im falling again

F#-|---------|---------|---------|---------|
C#-|---------|---------|---------|---------|
G#-|-0-0-0-0-|-0-0-0-8-|-0-0-0-0-|-0-0-8-9-|
D#-|---------|---------|---------|---------|

Into the fire, into the fire, I'm falling again

F#-|---------|---------|-----FILL------|
C#-|---------|---------|---------------|
G#-|-0-0-0-0-|-0-0-0-8-|-8-7-7-5-3-2-0-|
D#-|---------|---------|---------------|

Into the fire, I'm falling

F#-|---------|---------|---------|---------|
C#-|---------|---------|---------|---------|
G#-|-0-0-0-0-|-0-0-0-8-|-0-0-0-0-|-0-0-8-9-|
D#-|---------|---------|---------|---------|

Into the fire, into the fire, I'm falling again

F#-|---------|---------|--FILL---|
C#-|---------|---------|---------|
G#-|-0-0-0-0-|-0-0-0-8-|-8-7-77-|
D#-|---------|---------|---------|


F#-|---------|---------|---------|---------|
C#-|---------|---------|---------|---------|
G#-|-0-0-0-0-|-0-0-0-8-|-0-0-0-0-|-0-0-8-9-|
D#-|---------|---------|---------|---------|


F#-|---------|---------|--FILL---|
C#-|---------|---------|---------|
G#-|-0-0-0-0-|-0-0-0-8-|-8-7-77-|
D#-|---------|---------|---------|