Dokken - Alone Again Chords & Tabs

 

Alone Again Chords & Tabs

Dokken Chords & Tabs

Version: 1 Type: Bass Tab

Alone Again Bass Tab

Dokken alone again


INTRO
G---------------------------------------------------------------------------|
D------------------------------------WAIT 2 BARS----------------------------|
A---------------------------------------------------------------------------|
E---------------------------------------------------------------------------|

G--------9h11--9---7-----7---9/(12)---------------------------------------------|
D--------------------10--7---9/(12)--------7------------------------------------|
A-----------------------------------7-----3----5-------------0𦌿----12--12----|
E------------------------------------0-----------------5/--07---------3/10--10-|

1st  Verse  (Mezzo Forte)
G------------------------------------------|(Forte)|--------|
D-----------------------------9------------|-------|--------|
A--------0--2--3-3--5--5-5-5-------------7-|-------|-3----7-|
E-0---7--------------------------0---0-----|-------|---3-5-|

2nd   Verse  (Mezzo Forte)
G---------------------------|(Forte)|-----------|
D---------7-----------------|-------|--(Fill)---|
A-----7------3--5--2-3-5-0-2|-------|-----------|
E-0-------------------------|-------|--3------5-|

Chorus
G-----------------------------------------------------------------------|
D----9--7-9-----------x-------------------------5-----------------------|
A-2---------2--3---5--------------7----(5)--------------5--5-5-5--------|
E------------------------5/-0-0-0---------5-5-5------3------------3--2--|

G-----------------------------------------------------------------------|
D---------------------5-4--------------7------------------------5---(5)-|
A-------7---5--------------------5-----------------7---5----------------|
E-0-0-0-------5-5-5---------3----------------0-0-0-------5-5-5----------|

G----------------------------------------------------------------|
D----------------------------------------------------------------|
A-------------3----5--------7--7-7-7----3----5----------7--7-7-7-|
E--3----5----------------0------------------------0-0-0----------|

G-------------------------------------------------------------------------|
D---------------------------------------7---------------------------------|
A--3---3-5-------7-7---0-2-3-(3)/5--5--------------7------73--3-5---7-----|
E-------------0-----------------------------0---0-------------------------|

3rd   Verse  (Mezzo Forte)
G------------------------------------------|(Forte)|--------|
D-----------------------------9------------|-------|--------|
A--------0--2--3-3--5--5-5-5-------------7-|-------|-3----7-|
E-0---7--------------------------0---0-----|-------|---3-5-|

4th   Verse  (Mezzo Forte)
G---------------------------|(Forte)|-----------|
D---------7-----------------|-------|--(Fill)---|
A-----7------3--5--2-3-5-0-2|-------|-----------|
E-0-------------------------|-------|--3------5-|
[ Tab from: https://www.guitartabs.cc/tabs/d/dokken/alone_again_btab.html ]
Chorus
G-----------------------------------------------------------------------|
D----9--7-9-----------x-------------------------5-----------------------|
A-2---------2--3---5--------------7----(5)--------------5--5-5-5--------|
E------------------------5/-0-0-0---------5-5-5------3------------3--2--|

G-----------------------------------------------------------------------|
D---------------------5-4--------------7------------------------5---(5)-|
A-------7---5--------------------5-----------------7---5----------------|
E-0-0-0-------5-5-5---------3----------------0-0-0-------5-5-5----------|

G----------------------------------------------------------------|
D----------------------------------------------------------------|
A-------------3----5--------7--7-7-7----3----5----------7--7-7-7-|
E--3----5----------------0------------------------0-0-0----------|

G-------------------------------------------------------------------------|
D---------------------------------------7---------------------------------|
A--3---3-5-------7-7---0-2-3-(3)/5--5--------------7------73--3-5---7-----|
E-------------0-----------------------------0---0-------------------------|

Fill Before Guitar Solo
G---------------------------------------|
D-------------------9----7----9---------|
A--3----5----2-2-2---------------3--3-5-|
E---------------------------------------|

Guitar Solo
G-------------------------------------------------------------------------------|
D---------------------------------9---------------------------------------------|
A------7--7---3--3--5----5-----------7---7---7---3-----------5--------7---3---5-|
E--0------------------------0--0-------------------3---3--3------0--------------|

G---------------------------------------------------|
D--------------------------9----7--7----------------|
A--3----3--5---5--52---2-------------73----5--------|
E---------------------------------------------------|

Chorus
G-----------------------------------------------------------------------|
D----9--7-9-----------x-------------------------5-----------------------|
A-2---------2--3---5--------------7----(5)--------------5--5-5-5--------|
E------------------------5/-0-0-0---------5-5-5------3------------3--2--|

G-----------------------------------------------------------------------|
D---------------------5-4--------------7------------------------5---(5)-|
A-------7---5--------------------5-----------------7---5----------------|
E-0-0-0-------5-5-5---------3----------------0-0-0-------5-5-5----------|

G----------------------------------------------------------------|
D----------------------------------------------------------------|
A-------------3----5--------7--7-7-7----3----5----------7--7-7-7-|
E--3----5----------------0------------------------0-0-0----------|

G-------------------------------------------------------------------------|
D---------------------------------------7---------------------------------|
A--3---3-5-------7-7---0-2-3-(3)/5--5--------------7------73--3-5---7-----|
E-------------0-----------------------------0---0-------------------------|

G-----Guitar Outro----|
D---------------------|
A---------------------|
E---------------------|