Dispatch - Time Served Chords & Tabs

 

Time Served Chords & Tabs

Dispatch Chords & Tabs

Version: 2 Type: Bass Tab

Time Served Bass Tab

Artist: Dispatch
Song: Time Served
Album: Who Are We Living For?
Tab by Adam Eckert

This is a really fun song with a really good bass part, but the only other version of
tab that Iíve seen is pretty bad, so Iím going to try and do it right. There are a few
on the verse riffs throughout the song, but these are generally what they use. I 
quite get the timings down, so youíll have to listen to the song to figure them out.

Intro/Bridge:
G|-------------------------------------------------------|
D|--5-0-------5-0-----7-5----5-0------5-0----------------|
A|------5-7-5-----5-7-----7-----5-7-5-----5-7-5----------|
E|----------------------------------------------7-6-5-3--|
[ Tab from: https://www.guitartabs.cc/tabs/d/dispatch/time_served_btab_ver_2.html ]
G|-------------------------------------------------------|
D|--5-0-------5-0-----7-5----5-0------5-0-------------5--|
A|------5-7-5-----5-7-----7-----5-7-5-----------5-6-7----|
E|----------------------------------------5-6-7----------|

Verse Part One and Chorus:
G|-----7-----------|
D|---9---7---------|
A|-7-------9~10~9--|
E|-----------------| x2

G|-----7----------------|
D|---9---7--------------|
A|-7-------9~10~9-------|
E|----------------8-10--| last time

Verse Part Two:

G|----------------------2-0---------|
D|--2-2-5-2-2-2-5-4-0-0-----4-5-2---|
A|----------------------------------|
E|----------------------------------|

G|-----4-------4-2-----2-0---0-2-0----|
D|--2-2---2-2-2-----0-0-----4-------4-|
A|------------------------------------|
E|------------------------------------|

Song Order:
Intro/Bridge x1
Verse Pt.1 x2
Verse Pt.2 x2
Verse Pt.1 x2
Verse Pt.2 x3
Verse Pt.1 x3
Intro/Bridge x2
The song ends on a variation of the intro riff.
Enjoy!