Dishwalla - Give Chords & Tabs

 

Give Chords & Tabs

Dishwalla Chords & Tabs

Version: 2 Type: Chords

Give Chords

   
Give - Dishwalla

I've seen some of the tab for this song, and tried to play it. and i felt that it wasn't
that accurate. So I switched back on how i played this song before. I tabbed this song
for almost a decade now, when I bought the album "Pet your friends" this is the song
that i really hooked in to. I hope this will help...

 

Standard tuning:

 

    a    b7     d    cM7 
[ Tab from: https://www.guitartabs.cc/tabs/d/dishwalla/give_crd_ver_2.html ]
e---------2-----2----------------
B---2-----4-----3-----2----------
G---2-----2-----2-----4----------
D---2-----4-----------3----------
A---------2-----------4----------
E---------2----------------------

 

   f#m   f#maj7   f#m7

e---2------2-------2-------
B---2------2-------2-------
G---2------2-------2-------
D---4------3-------2-------
A---4------4-------4-------
E---2------2-------2-------

 

 
intro/verse: 

a - b7 - d - cM7

 

chorus:

f#m  f#maj7  f#m7 (2x)

d  cM7